Misc - Simple Blues Rhythm Chords & Tabs

 

Simple Blues Rhythm Chords & Tabs

Misc Chords & Tabs

Version: 1 Type: Tab 1 rating
1 star 2 stars 3 stars 4 stars 5 stars
comments

Simple Blues Rhythm Tab

From - David Rojas


Simple Blues Rythme



Intro:
e----88-77-66-55-let ring-
B---8--8--8--8------------
G-------------------------
D-------------------------
A-------------------------
E-------------------------

Verse 1:
e--------------------------------
B--------------------------------
G--------------------------------
D--2-2-4-2-2-2-4-2-2-2-4-2-2-2-4-
A--0-0-0-0-0-0-0-0-0-0-0-0-0-0-0-
E--------------------------------
[ Tab from: http://www.guitartabs.cc/tabs/m/misc/simple_blues_rhythm_tab.html ]
Verse 2:
e----------------------------------
B----------------------------------
G--2-2-4-2-2-2-4-2-2-2-4-2-5-2-4-2-
D--0-0-0-0-0-0-0-0-0-0-0-0-0-0-0-0-
A----------------------------------
E----------------------------------

Verse 3:
e----------------------------------
B----------------------------------
G------------------2-2-4-2-2-2-4-2-
D------------------0-0-0-0-0-0-0-0-
A--2-2-4-2-2-2-4-2-----------------
E--0-0-0-0-0-0-0-0-----------------

Verse 4:
e-------------------------
B-------------------------
G-------------------------
D--2-2-4-2-2-2-4-2--7-8-9-
A--0-0-0-0-0-0-0-0--5-6-7-
E-------------------------

That's all there is.
my guitar teacher gave this to me to learn.
Comments