Misc - Shadow Mans Theme Megaman Chords & Tabs

 

Shadow Mans Theme Megaman Chords & Tabs

Misc Chords & Tabs

Version: 1 Type: Tab 0 ratings
1 star 2 stars 3 stars 4 stars 5 stars
comments

Shadow Mans Theme Megaman Tab

Song: Megaman 3: Shadow Man's Theme
Tabbed By: Tim Barr
MX ID: SpADeD
Date: 1/28/04
                                                                    
E||------------------|--------------------------|------------------|
B||------------------|--2-----2-----2-----2-----|------------------|
G||------------------|--------------------------|------------------|
D||------------------|--4-----4-----4-----4-----|------------------|
A||------------------|--------------------------|------------------|
E||------------------|--------------------------|------------------|


                                                                                
|------7-----7--5------|
|------7-----7--7------|
|----------------------|
|----------------------|
|----------------------|
|----------------------|


                                                                       
--7--9-----7-----5------|------7-----7--5------|--11------------------|
--7--7-----7-----7------|------7-----7--7------|----------10----------|
------------------------|----------------------|--9-------9-----------|
------------------------|----------------------|----------------------|
------------------------|----------------------|----------------------|
------------------------|----------------------|----------------------|


                                                                       
------7-----7--5------|--7--9-----7-----5------|------7-----7--5------|
------7-----7--7------|--7--7-----7-----7------|------7-----7--7------|
----------------------|------------------------|----------------------|
----------------------|------------------------|----------------------|
----------------------|------------------------|----------------------|
----------------------|------------------------|----------------------|


                                                                        
--11------------------|-------------------------|----------------------|
----------10----------|-------------------------|----------------------|
--9-------9-----------|-------------------------|----------------------|
----------------------|-------------------------|----------------------|
----------------------|-------------------0-----|--4--2--0-------------|
----------------------|--7--7--5--7----7-----7--|-----------2----------|


                                                                       
-------------------------|------------------|-------------------------|
-------------------------|------------------|-------------------------|
-------------------------|------------------|--2--2-----2----2-----2--|
----------------4--3--2--|------------------|--------4----------4-----|
--2--2--0--2-------------|------------------|-------------------------|
-------------------------|------------------|-------------------------|


                                                                      
------------------------|-------------------------|------------------|
--0-----2-----0---------|-------------------------|------------------|
------------------------|----------------1--0-----|------------------|
-----------------4------|--2--2-----2----------4--|------------------|
------------------------|--------4----------------|------------------|
------------------------|-------------------------|------------------|


                                                                           
-------------------------|----------------------|-------------------------|
-------------------------|----------------------|-------------------------|
-------------------------|----------------------|-------------------------|
-------------------------|----------------------|----------------4--3--2--|
--2--2--0--2----2--0--2--|--4--2--0-------------|--2--2--0--2-------------|
-------------------------|-----------2----------|-------------------------|


                                                                      
------------------|-------------------------|------------------------|
------------------|-------------------------|--0-----2-----0---------|
------------------|--2--2-----2----2-----2--|------------------------|
------------------|--------4----------4-----|-----------------4------|
------------------|-------------------------|------------------------|
------------------|-------------------------|------------------------|


                                                                           
-------------------------|------------------|-----------------------------|
-------------------------|------------------|-----------------------------|
----------------1--0-----|------------------|-----------------------------|
--2--2-----2----------4--|------------------|----------------------2-1-2--|
--------4----------------|------------------|---------0--2-0-2--4---------|
-------------------------|------------------|--2-0-2----------------------|


                                                                           
----------------------|--------------------------|------------------------|
--------0--2----------|------------2--0-------2--|----0-------------------|
-----2----------------|--1---1--2--2--1---1---2--|----1--2--1------1------|
--4-------------------|--2-2-2--4---------2------|-------4--2--4---2------|
----------------------|----2---------------------|-------------6--------2-|
----------------------|--------------------------|------------------------|


                                                                                
--------------------------|-------------------------|--------------------------|
--0-----------------------|-------------------------|---------------0----------|
--1-----2-----1-----------|-------------------------|------------6----------6--|
--------4-----2-----4---4-|---2---2-----0-----4-----|--6---6--7--7--6---6---7--|
--------------------5---0-|---3---3--3--7-----5-----|--7-7-7--9---------7------|
--------------------------|-------------------------|----7---------------------|


                                                                              
------------------------|--------------------------|-------------------------|
----0-------------------|--0-----------------------|-------------------------|
-------2--1------1------|--1-----2-----1-----------|-------------------------|
----6--4--2--4---2------|--------4-----2-----4---4-|---2---2-----0-----4-----|
-------------6--------2-|--------------------5---0-|---3---3--3--7-----5-----|
------------------------|--------------------------|-------------------------|


                                                                 
------------------|--------------------------|------------------|
------------------|--2-----2-----2-----2-----|------------------|
------------------|--------------------------|------------------|
------------------|--4-----4-----4-----4-----|------------------|
------------------|--------------------------|------------------|
------------------|--------------------------|------------------|

[ Tab from: http://www.guitartabs.cc/tabs/m/misc/shadow_mans_theme_megaman_tab.html ]
                                                                                
|------7-----7--5------|
|------7-----7--7------|
|----------------------|
|----------------------|
|----------------------|
|----------------------|


                                                                       
--7--9-----7-----5------|------7-----7--5------|--11------------------|
--7--7-----7-----7------|------7-----7--7------|----------10----------|
------------------------|----------------------|--9-------9-----------|
------------------------|----------------------|----------------------|
------------------------|----------------------|----------------------|
------------------------|----------------------|----------------------|


                                                                       
------7-----7--5------|--7--9-----7-----5------|------7-----7--5------|
------7-----7--7------|--7--7-----7-----7------|------7-----7--7------|
----------------------|------------------------|----------------------|
----------------------|------------------------|----------------------|
----------------------|------------------------|----------------------|
----------------------|------------------------|----------------------|


                                                                        
--11------------------|-------------------------|----------------------|
----------10----------|-------------------------|----------------------|
--9-------9-----------|-------------------------|----------------------|
----------------------|-------------------------|----------------------|
----------------------|-------------------0-----|--4--2--0-------------|
----------------------|--7--7--5--7----7-----7--|-----------2----------|


                                                                       
-------------------------|------------------|-------------------------|
-------------------------|------------------|-------------------------|
-------------------------|------------------|--2--2-----2----2-----2--|
----------------4--3--2--|------------------|--------4----------4-----|
--2--2--0--2-------------|------------------|-------------------------|
-------------------------|------------------|-------------------------|


                                                                      
------------------------|-------------------------|------------------|
--0-----2-----0---------|-------------------------|------------------|
------------------------|----------------1--0-----|------------------|
-----------------4------|--2--2-----2----------4--|------------------|
------------------------|--------4----------------|------------------|
------------------------|-------------------------|------------------|


                                                                           
-------------------------|----------------------|-------------------------|
-------------------------|----------------------|-------------------------|
-------------------------|----------------------|-------------------------|
-------------------------|----------------------|----------------4--3--2--|
--2--2--0--2----2--0--2--|--4--2--0-------------|--2--2--0--2-------------|
-------------------------|-----------2----------|-------------------------|


                                                                      
------------------|-------------------------|------------------------|
------------------|-------------------------|--0-----2-----0---------|
------------------|--2--2-----2----2-----2--|------------------------|
------------------|--------4----------4-----|-----------------4------|
------------------|-------------------------|------------------------|
------------------|-------------------------|------------------------|


                                                                           
-------------------------|------------------|-----------------------------|
-------------------------|------------------|-----------------------------|
----------------1--0-----|------------------|-----------------------------|
--2--2-----2----------4--|------------------|----------------------2-1-2--|
--------4----------------|------------------|---------0--2-0-2--4---------|
-------------------------|------------------|--2-0-2----------------------|


                                                                           
----------------------|--------------------------|------------------------|
--------0--2----------|------------2--0-------2--|----0-------------------|
-----2----------------|--1---1--2--2--1---1---2--|----1--2--1------1------|
--4-------------------|--2-2-2--4---------2------|-------4--2--4---2------|
----------------------|----2---------------------|-------------6--------2-|
----------------------|--------------------------|------------------------|


                                                                                
--------------------------|-------------------------|--------------------------|
--0-----------------------|-------------------------|---------------0----------|
--1-----2-----1-----------|-------------------------|------------6----------6--|
--------4-----2-----4---4-|---2---2-----0-----4-----|--6---6--7--7--6---6---7--|
--------------------5---0-|---3---3--3--7-----5-----|--7-7-7--9---------7------|
--------------------------|-------------------------|----7---------------------|


                                                                              
------------------------|--------------------------|-------------------------|
----0-------------------|--0-----------------------|-------------------------|
-------2--1------1------|--1-----2-----1-----------|-------------------------|
----6--4--2--4---2------|--------4-----2-----4---4-|---2---2-----0-----4-----|
-------------6--------2-|--------------------5---0-|---3---3--3--7-----5-----|
------------------------|--------------------------|-------------------------|


                                                                 
------------------|--------------------------|------------------|
------------------|--2-----2-----2-----2-----|------------------|
------------------|--------------------------|------------------|
------------------|--4-----4-----4-----4-----|------------------|
------------------|--------------------------|------------------|
------------------|--------------------------|------------------|


                                                                                
|------7-----7--5------|
|------7-----7--7------|
|----------------------|
|----------------------|
|----------------------|
|----------------------|


                                                                        
--7--9-----7-----5------|------7-----7--5------|--11------------------||
--7--7-----7-----7------|------7-----7--7------|----------10----------||
------------------------|----------------------|--9-------9-----------||
------------------------|----------------------|----------------------||
------------------------|----------------------|----------------------||
------------------------|----------------------|----------------------||


Comments