Misc - Shadow Mans Theme Megaman Chords & Tabs

 

Shadow Mans Theme Megaman Chords & Tabs

Misc Chords & Tabs

Version: 1 Type: Bass Tab 0 ratings
1 star 2 stars 3 stars 4 stars 5 stars
comments

Shadow Mans Theme Megaman Bass Tab

Song: Megaman 3: Shadow Man's Theme
Tabbed By: Tim Barr
MX ID: SpADeD
Date: 1/28/04
                                                         
G||------------------1---5---|--5---5---5---5---5---5---|
D||------2---4---3-----------|--------------------------|
A||--4-3---3---3---3---3---3-|----3---3---3---3---3---3-|
E||--------------------------|--------------------------|


                                                                            
--5---5---5---5--------|--1----3--------|----4--3--1------|-----------1----|
------------------3----|----------------|-----------------|------3---------|
----3---3---3---3------|----------------|-----------------|----------------|
-----------------------|----------------|-----------------|----------------|


                                                                      
--3----------4--|--3--1----------|-------1----3----|--------4--3--1--|
----------------|----------------|--3--------------|-----------------|
----------------|----------------|-----------------|-----------------|
----------------|----------------|-----------------|-----------------|


                                                                    
---------------|--1----3--------|----4--3--1------|-----------1----|
----------3----|----------------|-----------------|------3---------|
---------------|----------------|-----------------|----------------|
---------------|----------------|-----------------|----------------|


                                                                      
--3----------4--|--3--1----------|-------1----3----|--------4--3--1--|
----------------|----------------|--3--------------|-----------------|
----------------|----------------|-----------------|-----------------|
----------------|----------------|-----------------|-----------------|

[ Tab from: http://www.guitartabs.cc/tabs/m/misc/shadow_mans_theme_megaman_btab.html ]
                                                                    
---------------|--1----3--------|----4--3--1------|-----------1----|
----------3----|----------------|-----------------|------3---------|
---------------|----------------|-----------------|----------------|
---------------|----------------|-----------------|----------------|


                                                                      
--3----------4--|--3--1----------|-------1----3----|--------4--3--1--|
----------------|----------------|--3--------------|-----------------|
----------------|----------------|-----------------|-----------------|
----------------|----------------|-----------------|-----------------|


                                                                    
---------------|--1----3--------|----4--3--1------|-----------1----|
----------3----|----------------|-----------------|------3---------|
---------------|----------------|-----------------|----------------|
---------------|----------------|-----------------|----------------|


                                                                      
--3----------4--|--3--1----------|-------1----3----|--------4--3--1--|
----------------|----------------|--3--------------|-----------------|
----------------|----------------|-----------------|-----------------|
----------------|----------------|-----------------|-----------------|


                                                                    
----------0----|------------7--|---5---4---------|------------4----|
---------------|---------------|------------5----|--4----5---------|
---------------|---------------|-----------------|-----------------|
---------------|---------------|-----------------|-----------------|


                                                                      
--2----0---------|--0--------------|--0------------|----7---5---4----|
------------4----|-------4----2----|---------------|-----------------|
-----------------|-----------------|---------------|-----------------|
-----------------|-----------------|---------------|-----------------|


                                                                       
-----------------|--4----2----0----|-------0---------|---------------||
--5----4----5----|-----------------|--4---------4----|--2------------||
-----------------|-----------------|-----------------|---------------||
-----------------|-----------------|-----------------|---------------||


Comments