Misc - Roadrunner United - The Rich Man Chords & Tabs

 

Roadrunner United - The Rich Man Chords & Tabs

Misc Chords & Tabs

Version: 1 Type: Tab

Roadrunner United - The Rich Man Tab

Heres what I have so far, this is an AMAZING song sung by Corey Taylor of Slipknot
[ Tab from: http://www.guitartabs.cc/tabs/m/misc/roadrunner_united_the_rich_man_tab.html ]
Intro/Verse
eb|----------------------------------------------|
bb|----------------------------------------------|
gb|----------------------------------------------|Repeat many times...
db|---11---11---11---11-------11h12--18~~--------|
ab|------9----9----9----9------------------------|
Db|----------------------------------------------|

Chorus
eb|----------------------------------------------|
bb|----------------------------------------------| 
gb|----------------------------------------------|
db|---1-0--1-0-----------2-3-2-3-5-3-2-3---------| 
ab|---1-0--1-0-----------2-3-2-3-5-3-2-3---------|
Db|---1-0--1-0-----------2-3-2-3-5-3-2-3---------|

Feel free to make any corrections!