Misc - Roadrunner United - In The Fire Chords & Tabs

 

Roadrunner United - In The Fire Chords & Tabs

Misc Chords & Tabs

Version: 1 Type: Bass Tab

Roadrunner United - In The Fire Bass Tab

Band: Roadrunner United
Song: In the Fire
Tabbed By : shaggyd133
e-mail: exviter989@msn.com 

This is a pretty awesome song. it's sung by King Diamond. Matt Heafy play 
guitar and wrote the whole thing.


Tuning:Standard

intro   
G|---------------------------|
D|---------------------------|
A|-7\---5-\-3/5--0--3-2-5/---| play each note with fast struming
E|---------------------------|

G|----------------------------|
D|----------------------------|
A|-7\---5-\-3/5--0--3\0///6---|
E|----------------------------|

G|-------------------------|
D|-------------------------|
A|--7-r--3--r--0--r--2--5--| play with the kick
E|-------------------------|

G|-------------------------|
D|-------------------------|
A|--7-r--3--r--0--r--2--5--| end on 7
E|-------------------------|

verse 
G|------------------------------|
D|------------------------------|
A|---7-6-7-----3-3-3-3-6-6-6-6--|play with the drums
E|------------------------------|

G|-------------------------------------------------------------------|
D|-------------------------------------------------------------------|
A|---7-------7-------7-------7-6-6-7-------7-------3-3-3-3--5-5-5-5--|
E|-----0-0-0---0-0-0---0-0-0---------0-0-0---0-0-0-------------------|

G|-------------------------------------------------------------------|
D|-------------------------------------------------------------------|
A|---7-------7-------7-------7-6-6-7-------7-------3-3-3-3--6-6-6-6--|
E|-----0-0-0---0-0-0---0-0-0---------0-0-0---0-0-0-------------------|

G|-------------------------------------------------------------------|
D|-------------------------------------------------------------------|
A|---7-------7-------7-------7-6-6-7-------7-------3-3-3-3--5-5-5-5--|
E|-----0-0-0---0-0-0---0-0-0---------0-0-0---0-0-0-------------------|

G|---------------------------------------------------|
D|---------------------------------------------------|
A|--3-4-3-0-0-0-3-4-3-0-0-3-4--3-4-3-0-0-0-----------|
E|------------------------------------------8-7-6-4--|

G|---------------------------------------------------|
D|---------------------------------------------------|
A|--3-4-3-0-0-0-3-4-3-0-0-3-4--3-4-3-0-0-0-----------|
E|------------------------------------------8-7-6-4--|
[ Tab from: http://www.guitartabs.cc/tabs/m/misc/roadrunner_united_in_the_fire_btab.html ]
chorus
G|---------------------------|
D|---------------------------|
A|-7\---5-\-3/5--0--3-2-5/---|play each note with fast struming
E|---------------------------|

G|----------------------------|
D|----------------------------|
A|-7\---5-\-3/5--0--3\0///6---|
E|----------------------------|

G|-------------------------|
D|-------------------------|
A|--7-r--3--r--0--r--2--5--| play with the kick
E|-------------------------|

G|-------------------------|
D|-------------------------|
A|--7-r--3--r--0--r--2--5--| end on 7
E|-------------------------|

Verse 
G|------------------------------|
D|------------------------------|
A|---7-6-7-----3-3-3-3-6-6-6-6--|play with the drums
E|------------------------------|

G|-------------------------------------------------------------------|
D|-------------------------------------------------------------------|
A|---7-------7-------7-------7-6-6-7-------7-------3-3-3-3--5-5-5-5--|
E|-----0-0-0---0-0-0---0-0-0---------0-0-0---0-0-0-------------------|

G|-------------------------------------------------------------------|
D|-------------------------------------------------------------------|
A|---7-------7-------7-------7-6-6-7-------7-------3-3-3-3--6-6-6-6--|
E|-----0-0-0---0-0-0---0-0-0---------0-0-0---0-0-0-------------------|

G|-------------------------------------------------------------------|
D|-------------------------------------------------------------------|
A|---7-------7-------7-------7-6-6-7-------7-------3-3-3-3--5-5-5-5--|
E|-----0-0-0---0-0-0---0-0-0---------0-0-0---0-0-0-------------------|

G|---------------------------------------------------|
D|---------------------------------------------------|
A|--3-4-3-0-0-0-3-4-3-0-0-3-4--3-4-3-0-0-0-----------|
E|------------------------------------------8-7-6-4--|

G|---------------------------------------------------|
D|---------------------------------------------------|
A|--3-4-3-0-0-0-3-4-3-0-0-3-4--3-4-3-0-0-0-----------|
E|------------------------------------------8-7-6-4--|

chorus
G|---------------------------|
D|---------------------------|
A|-7\---5-\-3/5--0--3-2-5/---|play each note with fast struming
E|---------------------------|

G|----------------------------|
D|----------------------------|
A|-7\---5-\-3/5--0--3\0///6---|
E|----------------------------|

G|-------------------------|
D|-------------------------|
A|--7-r--3--r--0--r--2--5--| play with the kick
E|-------------------------|


Sorry i don't have the solo in there, but it's not hard to hear. i think you can figure it out on your own.