Misc - Roadrunner United - Blood And Flames Chords & Tabs

 

Roadrunner United - Blood And Flames Chords & Tabs

Misc Chords & Tabs

Version: 3 Type: Tab

Roadrunner United - Blood And Flames Tab

   
Song: Blood and Flames
Artist: Roadrunner united
Album: Roadrunner united: The allstar sessions
Tuning: Drop D (D A E G B E)

Key:
Bu - Bend Up
R - Release Bend
~ - Let Ring
. - Palm muted
* - pinch harmonic

I have the entire song apart from the last solo, sorry. but the rest of it sounds pretty 
100% correct.

Intro/Chorus:
  Gtr 1.
e]-----------------------------------------------------------|
B]-----------------------------------------------------------|
G]---9-/-10--12-/-14--12---7-/-9---7--3----5-/-7--5----------|
D]---x-/-x----x-/--x---x---x-/-x---x--x----x-/-x--x----------|
A]---7-/-8---10-/-12--10---5-/-7---5--1----3-/-5--3----------|
D]-----------------------------------------------------------|

  Gtr 2.
e]-----------------------------------------------------------|
B]-----------------------------------------------------------|
G]-------------------------3-----5---------------------------|
D]----0----------3---------3-----5---------------------------|
A]----0----------3---------1-----3------5--4--3--0-----------|
D]----0----------3---------------------------------6--5--4*--|

Verse:
  Both Guitars
e]------------------------------------------------------------------------|
B]------------------------------------------------------------------------|
G]------------------------------------------------------------------------|
D]--0---------------------------------------------------------------------|
A]--0------------------3p0--------------------2p0--------------------1p0--|
D]--0--0-0-0-0-0-3p0h3-----0-0-0-0-0-0-3p0h3------0-0-0-0-0-0-3p0h3-------|
  PM   . . . . .           . . . . . .            . . . . . .

   Gtr 1                          Gtr 2
e]--------------------|          e]------------------------|
B]--------------------|          B]------------------------|
G]-5-/-7--5-----------|          G]------------------------|
D]-x-/-x--x--3--5-----|          D]---5-/-7--5--3--5-------|
A]-3-/-5--3--3--5-----|          A]---3-/-5--3--3--5-------|
E]------------3--5----|          E]-------------3--5-------|

Pre-Chorus:
   Gtr 1
e]----------------------------------------------------------|
B]----------------------------------------------------------|
G]------5-5---------------------5-5---5-/-7--5--------------|
D]--0~--5-5--0--3--5--6--5--0~--5-5---x-/-x--x--3--5--------|
A]--0~--7-7--0--3--5--6--5--0~--7-7---3-/-5--3--3--5--------|
D]--0~-------0--3--5--6--5--0~------------------3--5--------|

   Gtr 2 (Im not sure if there is a contrast here on the chord, but it sounds cool to 
it like there is)
  Gtr 2
e]---------------------------------------------------------|
B]-----3-3-------------------------------------------------|
G]-----2-2---------------------5-5-------------------------|
D]--0~-0-0--0--3--5--6--5--0~--5-5---5-/-7--5--3--5--------|
A]--0~------0--3--5--6--5--0~--7-7---3-/-5--3--3--5--------|
D]--0~------0--3--5--6--5--0~------------------3--5--------|

   Gtr 1
e]--------------------------------------------------------------------------|
B]--------------------------------------------------------------------------|
G]--------------------------------------------------------------------------|
D]--------------------------------------------------------------------------|
A]--------------------------------------------0-3-4-5-----0-5h7-0-5h7-0-5h7-|
D]-12-0-12-11-0-11-10-0-10-9-0--12---0-3-4-5--------------------------------|

   Gtr 2
e]--------------------------------------------------------------------------|
B]--------------------------------------------------------------------------|
G]--------------------------------------------------------------------------|
D]--------------------------------------------------------------------------|
A]--------------------------------------------0-3-4-5-----0-3h5-0-3h5-0-3h5-|
D]-12-0-12-11-0-11-10-0-10-9-0--12---0-3-4-5--------------------------------|

Intro/Chorus:
  Gtr 1.
e]-----------------------------------------------------------|
B]-----------------------------------------------------------|
G]---9-/-10--12-/-14--12---7-/-9---7--3----5-/-7--5----------|
D]---x-/-x----x-/--x---x---x-/-x---x--x----x-/-x--x----------|
A]---7-/-8---10-/-12--10---5-/-7---5--1----3-/-5--3----------|
D]-----------------------------------------------------------|

  Gtr 2.
e]-----------------------------------------------------------|
B]-----------------------------------------------------------|
G]-------------------------3-----5---------------------------|
D]----0----------3---------3-----5---------------------------|
A]----0----------3---------1-----3------5--4--3--0-----------|
D]----0----------3---------------------------------6--5--4*--|

Verse:
  Both Guitars
e]------------------------------------------------------------------------|
B]------------------------------------------------------------------------|
G]------------------------------------------------------------------------|
D]--0---------------------------------------------------------------------|
A]--0------------------3p0--------------------2p0--------------------1p0--|
D]--0--0-0-0-0-0-3p0h3-----0-0-0-0-0-0-3p0h3------0-0-0-0-0-0-3p0h3-------|
  PM   . . . . .           . . . . . .            . . . . . .

   Gtr 1                          Gtr 2
e]--------------------|          e]--------------------------|
B]--------------------|          B]--------------------------|
G]-5-/-7--5-----------|          G]--------------------------|
D]-x-/-x--x--3--5-----|          D]---5-/-7--5--3--5---------|
A]-3-/-5--3--3--5-----|          A]---3-/-5--3--3--5---------|
E]------------3--5----|          E]-------------3--5---------|

Pre-Chorus:
   Gtr 1
e]----------------------------------------------------------|
B]----------------------------------------------------------|
G]------5-5---------------------5-5---5-/-7--5--------------|
D]--0~--5-5--0--3--5--6--5--0~--5-5---x-/-x--x--3--5--------|
A]--0~--7-7--0--3--5--6--5--0~--7-7---3-/-5--3--3--5--------|
D]--0~-------0--3--5--6--5--0~------------------3--5--------|

   Gtr 2 (Im not sure if there is a contrast here on the chord, but it sounds cool to 
it like there is)
  Gtr 2
e]---------------------------------------------------------|
B]-----3-3-------------------------------------------------|
G]-----2-2---------------------5-5-------------------------|
D]--0~-0-0--0--3--5--6--5--0~--5-5---5-/-7--5--3--5--------|
A]--0~------0--3--5--6--5--0~--7-7---3-/-5--3--3--5--------|
D]--0~------0--3--5--6--5--0~------------------3--5--------|
[ Tab from: http://www.guitartabs.cc/tabs/m/misc/roadrunner_united_blood_and_flames_tab_ver_3.html ]
   Gtr 1
e]--------------------------------------------------------------------------|
B]--------------------------------------------------------------------------|
G]--------------------------------------------------------------------------|
D]--------------------------------------------------------------------------|
A]--------------------------------------------0-3-4-5-----0-5h7-0-5h7-0-5h7-|
D]-12-0-12-11-0-11-10-0-10-9-0--12---0-3-4-5--------------------------------|

   Gtr 2
e]--------------------------------------------------------------------------|
B]--------------------------------------------------------------------------|
G]--------------------------------------------------------------------------|
D]--------------------------------------------------------------------------|
A]--------------------------------------------0-3-4-5-----0-3h5-0-3h5-0-3h5-|
D]-12-0-12-11-0-11-10-0-10-9-0--12---0-3-4-5--------------------------------|

Intro/Chorus:
  Gtr 1.
e]-----------------------------------------------------------|
B]-----------------------------------------------------------|
G]---9-/-10--12-/-14--12---7-/-9---7--3----5-/-7--5----------|
D]---x-/-x----x-/--x---x---x-/-x---x--x----x-/-x--x----------|
A]---7-/-8---10-/-12--10---5-/-7---5--1----3-/-5--3----------|
D]-----------------------------------------------------------|

  Gtr 2.
e]-----------------------------------------------------------|
B]-----------------------------------------------------------|
G]-------------------------3-----5---------------------------|
D]----0----------3---------3-----5---------------------------|
A]----0----------3---------1-----3------5--4--3--0-----------|
D]----0----------3---------------------------------6--5--4*--|

Bridge:
  Both Guitars.
e]--------|
B]--------|
G]--------|
D]----0~--|
A]----0~--|
D]----0~--|

  just Guitar 1.                                 [only 1st time]
e]----------------------------------------|----------|
B]----------------------------------------|----------|
G]---5---5-3-------3-3-------3-3----------|----------|
D]---5---5-3-------3-3-------3-3--3--5--0-|-3h5p3----|
A]---7---7-5-------5-1-------1-1--3--5--0-|-------3*-|
D]-----0-----0-0-0-----0-0-0------3--5--0-|----------|
   PM  .     . . .     . . .

   Then guitar 2 comes in.                       [only first time]
e]----------------------------------------|----------|
B]----------------------------------------|----------|
G]---5---5-3-------3-3-------3-3----------|-------3*-|
D]---5---5-3-------3-3-------3-3--3--5--0-|-3h5p3----|
A]---7---7-5-------5-1-------1-1--3--5--0-|----------|
D]-----0-----0-0-0-----0-0-0------3--5--0-|----------|
   PM  .     . . .     . . .

Solo:
 Guitar 2 continues playing the above riff.

  Gtr 3.
e]---------------------------------------|
B]---------------------------------------|
G]---10--7-/-9--5-/-7--3--5--------------|
D]----x--x-/-x--x-/-x--x--x--------------|
A]----8--5-/-7--3-/-5--1--3--------------|
D]---------------------------------------|

  Gtr 1.
(the begining of the solo is in harmony with the above riff, played by a third guitar)
e]-----------------------------------------------------------------------|
B]----------------------------------------------------------------10-11--|
G]---10----10-9----9-10-9-----10--12-12bu-12bu-12bu-9-10-9h10p9----------|
D]------12------10--------12------------------------------------12-------|
A]-----------------------------------------------------------------------|
D]-----------------------------------------------------------------------|


e]-13bu-10------------------------------------------------------|
B]--------13bu-13R-13bu-13R--11--10--11bu--11R--10--8-----------|
G]---------------------------------------------------12--10-----|
D]-----------------------------------------------------------12-|
A]--------------------------------------------------------------|
D]--------------------------------------------------------------|

   (Play this bit very fast)    bend and release the last note many times
e]-------------------13h15p13----------------|
B]-------------13h15---------13h15-13bu~~~~~~|
G]-------10h12-------------------------------|
D]-10h12-------------------------------------|
A]-------------------------------------------|
D]-------------------------------------------|


Pre-chorus:
     Gtr 1
e]--------------------------------------------------------------------------|
B]--------------------------------------------------------------------------|
G]--------------------------------------------------------------------------|
D]--------------------------------------------------------------------------|
A]--------------------------------------------0-3-4-5-----0-5h7-0-5h7-0-5h7-|
D]-12-0-12-11-0-11-10-0-10-9-0--12---0-3-4-5--------------------------------|

   Gtr 2
e]--------------------------------------------------------------------------|
B]--------------------------------------------------------------------------|
G]--------------------------------------------------------------------------|
D]--------------------------------------------------------------------------|
A]--------------------------------------------0-3-4-5-----0-3h5-0-3h5-0-3h5-|
D]-12-0-12-11-0-11-10-0-10-9-0--12---0-3-4-5--------------------------------|

On 3rd and 4th time, play this
     Gtr 1
e]--------------------------------------------------------------------------|
B]--------------------------------------------------------------------------|
G]--------------------------------------------------------------------------|
D]--------------------------------------------------------------------------|
A]---------------------------------------------0-3-4-5-----0-5h7-0-5h7-0-5h7|
D]-12-0-12-14-0-14-15-0-15-17-0--12---0-3-4-5-------------------------------|

   Gtr 2
e]--------------------------------------------------------------------------|
B]--------------------------------------------------------------------------|
G]--------------------------------------------------------------------------|
D]--------------------------------------------------------------------------|
A]--------------------------------------------0-3-4-5-----0-3h5-0-3h5-0-3h5-|
D]-12-0-12-11-0-11-10-0-10-9-0--12---0-3-4-5--------------------------------|

Intro/Chorus:
  Gtr 1.
e]-----------------------------------------------------------|
B]-----------------------------------------------------------|
G]---9-/-10--12-/-14--12---7-/-9---7--3----5-/-7--5----------|
D]---x-/-x----x-/--x---x---x-/-x---x--x----x-/-x--x----------|
A]---7-/-8---10-/-12--10---5-/-7---5--1----3-/-5--3----------|
D]-----------------------------------------------------------|

  Gtr 2.
e]-----------------------------------------------------------|
B]-----------------------------------------------------------|
G]-------------------------3-----5---------------------------|
D]----0----------3---------3-----5---------------------------|
A]----0----------3---------1-----3------5--4--3--0-----------|
D]----0----------3---------------------------------6--5--4*--|

Outro:
  Both Guitars.
e]----------------------------------------|
B]----------------------------------------|
G]---5---5-3-------3-3-------3-3----------|
D]---5---5-3-------3-3-------3-3--3--5--0-|
A]---7---7-5-------5-1-------1-1--3--5--0-|
D]-----0-----0-0-0-----0-0-0------3--5--0-|
   PM  .     . . .     . . .

Sorry about not having the end solo, but the rest of its pretty good, right?