Misc - Roadrunner United - Annihilation By The Hands Of God Chords & Tabs

 

Roadrunner United - Annihilation By The Hands Of God Chords & Tabs

Misc Chords & Tabs

Version: 1 Type: Bass Tab

Roadrunner United - Annihilation By The Hands Of God Bass Tab

   
Annihilation by the hands of God
Roadrunner United
All star Sessions
Tuning D A D G
Tabbed by: bass_emagdnim (stipro@aggressive.com)

Mkay, 4th tab by me. This one's a little cramped, had to move stuff around for it to fit 
the upload box. But it should still give you a
rough idea of whats happening. Absolutely sickass song so have fun!

Key
  : slide down
 ~ : hold note

Intro
|------|
|------|
|------|
|-10-|

x3
|-----------------------------------------------------------------------------|
|-----------------------------------------------------------13-12-10----------|
|--------------------------55555555--------66666666-----------------13-12-10--|
|-1--0--3-1--4--3-0-3-1-0~---------66666666--------77777777-------------------|

Verse (0:36)
|-----------------------------------------------------|
|-----------------------------------------------------|
|-----------------------------------------------------|
|-0000---0000-3-3-0000-1-0000---0000-3-3-0000-1-0000--|

|-----------------------------------------|
|-----------------------------------------|
|-----------------------------------------|
|-0000-3-3-0000-1-0000---0000-3-3-0000-6--|

|-----------------------------------------------------------------------|
|-----------------------------------------------------------------------|
|-----------------------------------------------------------------------|
|-0000---0000-3-3-0000-1-0000---0000-3-3-0000-1-0000---0000-3-3-0000-1--|

x2
|-----------------------------------------------------|
|-----------------------------------------------------|
|-----------------------------------------------------|
|-0000---0000-3-3-0000-1-0000---0000-3-3-0000-1-0000--|

|-----------------------------------------|
|-----------------------------------------|
|-----------------------------------------|
|-0000-3-3-0000-1-0000---0000-3-3-0000-6--|

x2
|----------------------------------------------------------|
|----------------------------------------------------------|
|----------------------------------------------------------|
|-0-0-0---0-0-0-3-3-0-0-1--0-0-0---0-0-0-3-3-0-0-1--0-0-0--|

|-------------------------------------------|
|-------------------------------------------|
|-------------------------------------------|
|-0-0-0-3-3-0-0-1--0-0-0---0-0-0-3-3-0-0-6--|

Chorus (1:26) x4
|-------------------------------|
|-------------------------------|
|-------------------------------|
|-6666666666669999999988888888--|

Post-chorus fill (1:40)
|------------------| x2 |------------------| x2
|------------------|    |------------------|
|---------5-4-4-3--|    |------------------|
|-6-5-9-8----------|    |-6-5-9-8-4-3-2-1--|

Verse 2 (come in at 1:57)
|----------------------------------------------------------|
|----------------------------------------------------------|
|----------------------------------------------------------|
|-0-0-0---0-0-0-3-3-0-0-1--0-0-0---0-0-0-3-3-0-0-1--0-0-0--|
[ Tab from: http://www.guitartabs.cc/tabs/m/misc/roadrunner_united_annihilation_by_the_hands_of_god_btab.html ]
|-------------------------------------------|
|-------------------------------------------|
|-------------------------------------------|
|-0-0-0-3-3-0-0-1--0-0-0---0-0-0-3-3-0-0-6--|

Chorus x2

Fill (2:14) x4
|------------------|
|------------------|
|------------------|
|-5-6-9-8-5-4-7-8--|

(2:24)
|---------------------------------------------------------| x4
|---------------------------------------13-12-10----------|
|---------------------------5~----6~-------------3-12-10--|
|-1--0--3-1--4--3-0-3-1-0~-----6~----7~-------------------|

Solo (2:57)
x2
|-----------------------------------------------------|
|-----------------------------------------------------|
|-----------------------------------------------------|
|-0000---0000-3-3-0000-1-0000---0000-3-3-0000-1-0000--|

|-----------------------------------------|
|-----------------------------------------|
|-----------------------------------------|
|-0000-3-3-0000-1-0000---0000-3-3-0000-6--|

x2
|----------------------------------------------------------|
|----------------------------------------------------------|
|----------------------------------------------------------|
|-0-0-0---0-0-0-3-3-0-0-1--0-0-0---0-0-0-3-3-0-0-1--0-0-0--|

|-------------------------------------------|
|-------------------------------------------|
|-------------------------------------------|
|-0-0-0-3-3-0-0-1--0-0-0---0-0-0-3-3-0-0-6--|

Fill (3:28)
|---------------------|
|---------------------|
|---------------------|
|-0~---3~---3-2-1-0~--|

Then rest till:
(3:51)
|-----------------------------| x4 |---------------------------------| x4
|-----------------------------|    |---------------------------------|
|-----------------------------|    |---------------------------------|
|-3-2-1--3-2-1--3-2-1--3-2-2--|    |-3-2-1-0-3-2-1-0-3-2-1-0-3-2-1-0-|

Chorus (4:25) x2

Post-chorus fill (4:32)
|------------------| x4
|------------------|
|---------5-4-4-3--|
|-6-5-9-8----------|

Outro (4:42)
|---------------------------------------------------------| x4
|---------------------------------------13-12-10----------|
|---------------------------5~----6~------------13-12-10--|
|-1--0--3-1--4--3-0-3-1-0~-----6~----7~-------------------|

|------------------------------------------------------|
|------------------------------------------------------|
|------------------------------------------------------|
|-0000---0000-3-3-0000-1-0000---0000-3-3-0000-1-0000---|

|-----------------------------------------|
|-----------------------------------------|
|-----------------------------------------|
|-0000-3-3-0000-1-0000---0000-3-3-0000-6--|

|-----------------------------------------------------------------------------------|
|-----------------------------------------------------------------------------------|
|-----------------------------------------------------------------------------------|
|-0-0-0---0-0-0-3-3-0-0-1--0-0-0---0-0-0-3-3-0-0-1--0-0-0---0-0-0-3-3-0-0-1--0-0-0--|

|------------------------------|
|------------------------------|
|------------------------------|
|-0000---0000-3-3-0000-1-0000--|