Misc - Rise Of Nations Chords & Tabs

 

Rise Of Nations Chords & Tabs

Misc Chords & Tabs

Version: 1 Type: Tab 0 ratings
1 star 2 stars 3 stars 4 stars 5 stars
comments

Rise Of Nations Tab

For all you Rise of Nations fans this is the song played in the credits.
I'm not absolutly sure who made it up but its all cool. This song is best played on an electric
guitar but will work on an acoustic or classical.

Part:1
e--------------------------------------
A--------------------------------------
D-------------------------------------- 
G--2-2-2-2-2-2-2-2-2--7-7-7-7-7-7-7-7--
B--2-2-2-2-2-2-2-2-2--7-7-7-7-7-7-7-7--
E--0-0-0-0-0-0-0-0-0--5-5-5-5-5-5-5-5--
					Reapeat 2x	
e--------------------------------------
A--------------------------------------
D-------------------------------------- 
G--4-4-4-4-4-4-4-4-4--2-2-2-2-2-2-2-2--
B--4-4-4-4-4-4-4-4-4--2-2-2-2-2-2-2-2--
E--2-2-2-2-2-2-2-2-2--0-0-0-0-0-0-0-0--

Every other strum should be an up stroke (this part is best played with the boost on)
[ Tab from: http://www.guitartabs.cc/tabs/m/misc/rise_of_nations_tab.html ]
e--------------------------------------
A--------------------------------------
D-------------------------------------- 
G--2--2--2--2--2--2---7--7--7--7--7--7-
B--2--2--2--2--2--2---7--7--7--7--7--7-
E--0--0--0--0--0--0---5--5--5--5--5--5-
					Repeat 5x
e--------------------------------------
A--------------------------------------
D-------------------------------------- 
G--4--4--4--4--4--4---2--2--2--2--2--2-
B--4--4--4--4--4--4---2--2--2--2--2--2-
E--2--2--2--2--2--2---0--0--0--0--0--0-

Then comes the "solo"
Part:2
e--------------------------------------
A--------------------------------------
D--------------------1----------------- 
G--------------------2-----------------
B--------------------2-----------------
E--0h2--0h3-3-33-0---0-----------------

e----------------0-------00-0----------
A----------------2-------22-2----------
D----------------2-------22-2--1-------
G----------------2-------22-2--2-------
B----------------0-------00-0--2-------
E--0h2--0h3-30-----------------0-------

e----------------0-------00--00--00----
A----------------2-------22--22--22----
D----------------2-------22--22--22--1- 
G----------------2-------22--22--22--2-
B----------------0-------00--00--00--2-
E--0h2--0h3-30-----------------------0-

e--------------------------------------
A--------------------------------------
D-------------------------------------- 
G--------------------------------------
B--------------------------------------
E--0h2--0h3-3-33-0---------------------

Then you just repeat part:1

THE END
Comments