Misc - Ripley Chris - Some Cool Riffs Chords & Tabs

 

Ripley Chris - Some Cool Riffs Chords & Tabs

Misc Chords & Tabs

Version: 1 Type: Tab 0 ratings
1 star 2 stars 3 stars 4 stars 5 stars
comments

Ripley Chris - Some Cool Riffs Tab

   
-------------------------------------------------------------------------------
			     Just Some Small Riffs
-------------------------------------------------------------------------------
Tabbed by:ragnarokwarrior
Email:apollo04418@yahoo.com

Tuning:Standard


| ^  Bend (Note: "^^" Means to bend it twice)
| /  Slide up
| \  Slide down
| h  Hammer-on
| p  Pull-off
| ~  Vibrato
| +  Harmonic
| x  Mute note

I'm not sure if these are scales, but have fun.
Play moderately fast for better sound.

e|---------------------------------------------------------------------------|
B|---------------------------------------------------------------------------|
G|-------------------------12--14--14^^--12----------------------------------|
D|-----------------12--14--------------------14------------------------------|
A|---------12--14------------------------------------------------------------|
E|-12--14--------------------------------------------------------------------|

e|---------------------------------------------------------------------------|
B|---------------------------------------------------------------------------|
G|-------------------------8--10--10^^--8------------------------------------|
D|-----------------8--10--------------------10-------------------------------|
A|---------8--10-------------------------------------------------------------|
E|-8--10---------------------------------------------------------------------|

Putting them both together sounds good too:

e|---------------------------------------------------------------------------|
B|---------------------------------------------------------------------------|
G|-------------------------------------8-10-12-14-14^^-12------10^^-8--------|
D|-------------------------8-10-12-14----------------------14----------10----|
A|-------------8-10-12-14----------------------------------------------------|
E|-8-10-12-14----------------------------------------------------------------|

Again, play fast:
[ Tab from: http://www.guitartabs.cc/tabs/m/misc/ripley_chris_some_cool_riffs_tab.html ]
e|-12--10------10------------10--8------8------------------------------------|
B|---------12------12--10^^---------10-----10--8^^---------------------------|
G|---------------------------------------------------------------------------|
D|---------------------------------------------------------------------------|
A|---------------------------------------------------------------------------|
E|---------------------------------------------------------------------------|
Just play the same pattern down the neck of the guitar.

This one can be done at a leisurely speed:

e|-------------------5^------------------------------------------------------|
B|-8--7--5--7--5-------------------------------------------------------------|
G|----------------7----------------------------------------------------------|
D|---------------------------------------------------------------------------|
A|---------------------------------------------------------------------------|
E|---------------------------------------------------------------------------|

This is the end of a blues song I once heard, but can't I remember its name.

e|---------------------------------------------------------------------------|
B|---------------------------------------------------------------------------|
G|--------------------------8\7--7-------------------------------------------|
D|--------------------------7\6--6-------------------------------------------|
A|------4-4--5-5--6-6--6-7--8\7--7-------------------------------------------|
E|-5-5-----------------------------------------------------------------------|

Something Cool:

Riff#1                                      Sustain this strum
e|-----------------------------------------/----------------------------------|
B|----------------------------------------/-----------------------------------|
G|---------------------------------------/------------------------------------|
D|---13--13--13--13--------11--11--11--11----/--15--15--15--15----------------|
A|--11--11--11--11--11----9---9---9---9---9--/-13--13--13--13--13-------------|
E|-12--12--12--12-------10--10--10--10-------/14--14--14--14------------------|
                                          /
        Repeat Twice then add Riff#2 Here/

Riff#2            Sustain this Strum
e|---------------/------------------------------------------------------------|
B|--------------/-------------------------------------------------------------|
G|-------------/--------------------------------------------------------------|
D|---9--9--9--9---------------------------------------------------------------|
A|--7--7--7--7--7-------------------------------------------------------------|
E|-8--8--8--8-----------------------------------------------------------------|


===============================================================================
Comments