Misc - Riding Into The Sunset Chords & Tabs

 

Riding Into The Sunset Chords & Tabs

Misc Chords & Tabs

Version: 1 Type: Tab 0 ratings
1 star 2 stars 3 stars 4 stars 5 stars
comments

Riding Into The Sunset Tab

Riding into the Sunset
Western Song

tabbed by Dr. Linus Rebar

This is the music that plays in the background
of Western movies as cowboys ride their horses.
It isn't very difficult, but it's fun to play.
Just repeat these two lines over and over again.
[ Tab from: http://www.guitartabs.cc/tabs/m/misc/riding_into_the_sunset_tab.html ]
Note to Ultimate-Guitar Officals: Please post
this on your website. It got turned down the
last time that I submitted it, but it is an
accurate tab. There are also about 20 people
who have asked me how to play this is the past
few days, so there is some demand for it. If 
for no other reason, perhaps you could post
this as an act of gratitude for the other
quality tabs that I have written and submitted.

Standard Tuning
e|-----------------------------------------|
B|-----------------------------------------|
G|-----------------------------------------|
D|-----------------------------------------|
A|----2-4--2----2-4--2----2-4--2----2-4--2-|
E|-0---------0---------0---------0---------|

e|-----------------------------------------|
B|-----------------------------------------|
G|-----------------------------------------|
D|----2-4--2----2-4--2----2-4--2----2-4--2-|
A|-0---------0---------0---------0---------|
E|-----------------------------------------|
Comments