Misc - Really Cool Song Chords & Tabs

 

Really Cool Song Chords & Tabs

Misc Chords & Tabs

Version: 1 Type: Tab 0 ratings
1 star 2 stars 3 stars 4 stars 5 stars
comments

Really Cool Song Tab

ok this isnt really a cool song, i lied, i need ur help with it im a beginner
and i got sum crappy bits and i cant really link them togetha

if u can help, email me at mattlee421@hotmail.com, thanx, i know no one will but
oh well


-----------------------------------------------------
-----------------------------------------------------
--------11-------------------11-------11---------12--
------9----9---------------9---------9--9-------9----
---10-------10-----------0--------10-----10---11-----
-0---------------0-----0---------0-----------0-------

[ Tab from: http://www.guitartabs.cc/tabs/m/misc/really_cool_song_tab.html ]
-------------------------------------------------------------------
-------------------------------------------------------------------
-------------------------------------------------------------------
---6---6---6---6---7---7---7---7---6---6---6---6---7---7---7--7-----
-7---7---7---7---7---7---7---7---7---7---7---7---0---0---0--0--------
--------------------------------------------------------------------

and then theres this bit im not sure if this can go in anywhere...

------------------------------------------
--------------------------------------------
-------2----------2--------------------------
----0----0------0---0--------------------------
-2---------2----------2-----------------------     etc...
-------------0------------------------------

i know its bad so help me, and i promise to be ur frend
Comments