Misc - Plucky By Adamn Bales Chords & Tabs

 

Plucky By Adamn Bales Chords & Tabs

Misc Chords & Tabs

Version: 1 Type: Tab 0 ratings
1 star 2 stars 3 stars 4 stars 5 stars
comments

Plucky By Adamn Bales Tab


    Heres a little song i wrote ,ive been playing guitar for 6 months and heres one of
    my first pieces

    


   |-----0-3---------0-3---
   |-3-------3---3-------3-
   |--0------3----0------3-
   |---0---3-------0---3---
   |-----------------------
   |-3-----------3---------
[ Tab from: http://www.guitartabs.cc/tabs/m/misc/plucky_by_adamn_bales_tab.html ]
   |-----------------------
   |-----------------------
   |-0---0-3---0---0-3-----
   |--2------3--2------3---
   |---2-----3---2-----3---
   |-0-----3---0-----3-----

   |-2---2-2----2---2-2----
   |--3------2---3------2--
   |---2-----2----2-----2--
   |-0-----2----0-----2----
   |-----------------------
   |-----------------------

   |-----0-3-------------------- 
   |-3-------3-3-----------------
   |--0------3---3-3---2---1-----
   |---0---3-----3---3---2---1-0-
   |-----------3-----3---2---1-0-
   |-3-------------3---2---1-----

   By Adam Bales

   Any comments send to
Comments