Misc - Pink Panther Chords & Tabs

 

Pink Panther Chords & Tabs

Misc Chords & Tabs

Version: 1 Type: Tab 4 ratings
1 star 2 stars 3 stars 4 stars 5 stars
comments

Pink Panther Tab

The Pink Panther theme tune

Arranged by Mark Neal

         |   |    |   |   |   |    |   |   |   |    |   |   |   |    |   |   |   |    
|----------------|----0-------0---|----0-----------|----0-------0---|----0-----------|
|----------------|----0-------0---|----0-----------|----1-------1---|----1-----------|
|----------------|----0-------0---|----0-----------|----0-------0---|----0-----------|
|--------------1-|2---------------|2---------2-1-0-|----------------|--------------1-|
|----------4-5---|--------2-------|--------2-------|3---------------|3---------4-5---|
|----------------|----------------|----------------|--------3-------|--------3-------|

 |   |   |   |    |   |   |   |    |   |   |   |    |   |   |   |    |   |   |   |    
|----0-------0---|----0-----------|----0-------0---|----0-----------|----0-------0---|
|----0-------0---|----0-----------|----1-------1---|----1-----------|----0-------0---|
|----0-------0---|----------------|----0-------0---|----0-----------|----0-------0---|
|2---------------|2---------2-1-0-|----------------|--------------1-|2-----4-5-----1-|
|--------2-------|--------2-------|3---------------|3---------4-5---|----------------|
|----------------|----------------|--------3-------|--------3-------|----------------|
[ Tab from: http://www.guitartabs.cc/tabs/m/misc/pink_panther_tab.html ]
 |   |   |   |    |   |   |   |    |   |   |   |    |   |   |   |    |   |   |   |    
|----------------|----------------|----------------|----0-------0---|--------------0-|
|------1-0-----0-|1---------------|----------------|----0-------0---|------1-0-------|
|------------0---|3---------2-0---|----------------|----0-------0---|------------0---|
|2-4-5-----2-----|2-------------2-|0-2-----------1-|2-----4-5-----1-|2-4-5-----2-----|
|----------------|3---------------|----------4-5---|----------------|----------------|
|----------------|----------------|----------------|----------------|----------------|

 |   |   |   |    |   |   |   |    |   |   |   |    |   |   |   |    |   |   |   |    
|1---------------|----------------|----0-------0---|----------------|----------------|
|4---------------|----------------|----0-------0---|------1-0-----0-|1---------------|
|2---------------|----------------|----0-------0---|------------0---|3---------2-0---|
|1---------------|--------------1-|2-----4-5-----1-|2-4-5-----2-----|2-------------2-|
|3---------------|----------4-5---|----------------|----------------|3---------------|
|1---------------|----------------|----------------|----------------|----------------|

 |   |   |   |    |   |   |   |    |   |   |   |    |   |   |   |    |   |   |   |    
|----------------|----0-----------|----------------|----------------|----------------|
|----------------|------3-0-------|----------------|----------------|----------------|
|----------------|----------2-0---|32--32--32--32--|0---------------|0---------------|
|0-2-------------|--------------2-|----------------|--2-0-2-2-------|--2-0-2-2-------|
|----------------|----------------|----------------|----------------|----------------|
|----------------|0---------------|----------------|0---------------|3---------------|

 |   |   |   |    |   |   |   |    
|----------------|----------------|
|----------------|4---------------|
|0---------------|4---------------|
|--2-0-2-2-------|3---------------|
|----------------|0---------------|
|0---------------|----------------|

Comments