Misc - Picking Exercise Chords & Tabs

 

Picking Exercise Chords & Tabs

Misc Chords & Tabs

Version: 1 Type: Tab 0 ratings
1 star 2 stars 3 stars 4 stars 5 stars
comments

Picking Exercise Tab

E||----------------------------------|----------------------------------|
B||----------------------------------|----------------------------------|
G||--2-------2-------2-------2-------|--5-------5-------5-------5-------|
D||----5-2-5---5-2-5---5-2-5---5-2-5-|----7-5-7---7-5-7---7-5-7---7-5-7-|
A||----------------------------------|----------------------------------|
E||----------------------------------|----------------------------------|


                                           
------------------------------------------|
------------------------------------------|
--7---------7---------7---------7---------|
----10-7-10---10-7-10---10-7-10---10-7-10-|
------------------------------------------|
------------------------------------------|

[ Tab from: http://www.guitartabs.cc/tabs/m/misc/picking_exercise_tab.html ]
                                               
----------------------------------------------|
----------------------------------------------|
--9----------9----------9----------9----------|
----12-10-12---12-10-12---12-10-12---12-10-12-|
----------------------------------------------|
----------------------------------------------|


                                                   
--------------------------------------------------|
--------------------------------------------------|
--12----------12----------12----------12----------|
-----14-12-14----14-12-14----14-12-14----14-12-14-|
--------------------------------------------------|
--------------------------------------------------|


                                              
--------------------------------------------||
--------------------------------------------||
--14----------14----------14----------14~---||
-----17-14-17----17-14-17----17-14-17-------||
--------------------------------------------||
--------------------------------------------||
Comments