Misc - Peter Pan Resurrection Chords & Tabs

 

Peter Pan Resurrection Chords & Tabs

Misc Chords & Tabs

Version: 1 Type: Tab 0 ratings
1 star 2 stars 3 stars 4 stars 5 stars
comments

Peter Pan Resurrection Tab

   
PETER PAN SPEEDROCK

" Resurrection" 

album: Premium quality...serve loud! 	
year: 2001
guitar: Peter van Elderen
composition: Peter Pan Speedrock

translated by Michiel Hautus from The Netherlands, September 2003

MORE PETER PAN SPEEDROCK TABS:
http://home.hccnet.nl/michiels.gitaarparadijs/
(AND ALSO: ROLLINS BAND, THE GATHERING, THE STROKES, BLACK SABBATH, KILLING JOKE AND MORE...)

explanation signs:

7h8	= hammer-on
7p5	= pull-off
8b9	= bend 8th fret to 9th
b9	= strike bended tone
7b	= bend the string a little bit
~	= vibration
~~	= much vibration
	= slide down
/	= slide up
x	= percussionstrike
	= artificial harmonic
>7	= give accent
^	= upstroke
(	= striked as arpeggio
R	= rest


RIFF A VERSE

marked notes: leave out last time before riff B
                               | |
                               | |
E -----------------------------|-|-|
B -----------------------------|-|-|
G -----------------------------|-|-|
D -------2-R-------------4-R-2-R-|-|
A -2h4-R-0-R-2-R---2h4-R-2-R-0-R-|-|
E -0h2-R-----0-R-x-0h2-R---------x-|

RIFF B PRE-CHORUS (with variations)

E -----------------------|------------------------------|
B -----------------------|------------------------------|
G -----------------------|------------------------------|
D ---4-4-444-444-44444---|---4-4-444-5555---------------|
A -1/2-2-222-222-22222p0-|-1/2-2-222-3333->3b>3b>3b>3b--|
E -----------------------|------------------------------|

note: bended C tone at end: bend again and again little more till a quarter note

RIFF C BRIDGE

E ---------------------------------|
B ---------------------------------|
G ---------------------------------|
D ---------------------------------|
A -4-4-4-4-4-4-4-4-4-4-4-4-4-4-4-4-|
E -2-2-2-2-2-2-2-2-2-2-2-2-2-2-2-2-|

note: strike from soft to hard

RIFF D CHORUS

E ------^0---------------^0----------|------^0---------------^0----------|
B ------^0---------------^0----------|------^2---------------^2----------|
G -----------------------------------|-2----------------2----------------|
D -2----------------2----------------|-2----------------2----------------|
A -2----------------2----------------|-0----------------0----------------|
E -0----------------0----------------|-----------------------------------|

note: let ring chords, but not the high tones with the next low tones

RIFF E ROUNDING CHORUS 

E --------------------|
B --------------------|
G --------------------|
D -4-4-4--4-4-4--4-4--|
A -2-2-2--2-2-2--2-2--|
E --------------------|

note: strike first six tones as 12th and mute all chords slightly

SOLO

bass in G:
[ Tab from: http://www.guitartabs.cc/tabs/m/misc/peter_pan_resurrection_tab.html ]
E ----------------------------|--------------------------------|
B -7b8~~----6-5-6-5---5-------|-(3-3------6--------------------|
G ----------x-------7-5-------|-(0-0------0--------------------|
D ----------------------8~----|-(0-0--3p0---3~---0-3-R-3-3~---|
A ----------------------------|--------------------------------|
E ----------------------------|--------------------------------|

bass in B:

note: strike first bended tone at 11th fret while bended to 12th position before striking
       
E -------------------------------|
B -x-b12~~----10-9-10-9-7---7-7--|
G ------------------------9------|
D -------------------------------|
A -------------------------------|
E -------------------------------|

E -------------------------------------------------------------|
B ---------7-7---------7-7---------7-7---------7--7--------7---|
G -9/10b11-----9/10b11-----9/10b11-----9/10b11----9/10b11-b11--|
D -------------------------------------------------------------|
A -------------------------------------------------------------|
E -------------------------------------------------------------|

bass in G:  

note: play bended F tone on B-string as slight artificial harmonic

E -------------------------------------------|
B -----------------------------------|
G -------------3b~~------------3b~~--0-0-0-0-|
D -0-0-3b------------0-3b------------0-0-0-0-|
A -------------------------------------------|
E -------------------------------------------|

E -------------------------------------------|
B -----------------------------------|
G -------------3b~~------------3b~~--0-0-0-0-|
D -0-0-3b------------0-3b------------0-0-0-0-|
A -------------------------------------------|
E -------------------------------------------|

bass in B:

note: strike first bended tone at 11th fret while bended to 12th position before striking

E --------------------------------------|
B -x-b12~~----10-9-10-9-7---7--------7--|
G ------------------------9-9/10b11-b11-|
D --------------------------------------|
A --------------------------------------|
E --------------------------------------|

E -----------------------------------------------|
B ---------7-7---------7-7-7--------7-->-7----R-|
G -9/10b11-----9/10b11-----9/10b11-b11->b11---R-|
D -----------------------------------------------|
A -----------------------------------------------|
E -----------------------------------------------|

RIFF E2 ROUNDING CHORUS 
variation after solo instead of 3th and 4th bar

E ---------------------------------------|
B ---------------------------------------|
G ---------------------------------------|
D ->4->4-R->4->4-R->4->4-R->4->4-R-4--2--|
A ->2->2-R->2->2-R->2->2-R->2->2-R-2--0--|
E ---------------------------------------|

ENDRIFF

E ---------------------------------|--------------------------|
B ---------------------------------|--------------------------|
G ---------------------------------|--------------------------|
D -------2-R-------------4-R-2-R---|-------2-R----------------|
A -2h4-R-0-R-2-R---2h4-R-2-R-0-R---|-2h4-R-0-R-2-R-2-4-2->4-R-|
E -0h2-R-----0-R-x-0h2-R---------x-|-0h2-R-----0-R-0-2-0->2-R-|



                      ROCK 'N ROLL!!!
Comments