Misc - Pepper Ann Theme Chords & Tabs

 

Pepper Ann Theme Chords & Tabs

Misc Chords & Tabs

Version: 1 Type: Tab 1 rating
1 star 2 stars 3 stars 4 stars 5 stars
comments

Pepper Ann Theme Tab

-------------------------------------------------------------------------------
		Pepper Ann theme - Disney
-------------------------------------------------------------------------------
By:Hardy (hardy182x@hotmail.com)

This theme rocks, I was bored so decided to tab it:

/ =slide
* =hold note 

e|------------2---2---5----------------3------------------------------------|
B|---3---5----------------5---5---7-------7---5---7-----------5-----------|
G|-------------------------------------------------------7---7--------------|
D|---------------------------------------------------------------------------|
A|---------------------------------------------------------------------------|
E|---------------------------------------------------------------------------|
[ Tab from: http://www.guitartabs.cc/tabs/m/misc/pepper_ann_theme_tab.html ]
e|-----------5---------------3/10-------------------------------------------|
B|--7---7-------5--5---7----------------------------------------------------|
G|---------------------------------------------------------------------------|
D|---------------------------------------------------------------------------|
A|---------------------------------------------------------------------------|
E|---------------------------------------------------------------------------|

e|----------------------5-----------------3-------------------------------------|
B|------5---7---7----------5---5---7-----------7---5---7---------------------|
G|--7--------------------------------------------------------7*------7---7---7-|
D|------------------------------------------------------------------------------|
A|------------------------------------------------------------------------------|
E|------------------------------------------------------------------------------|

e|------------------3---5------------------------------------------------------|
B|---5---6---6-----------------------------------------------------------------|
G|------------------------------------------------------------------------------|
D|------------------------------------------------------------------------------|
A|------------------------------------------------------------------------------|
E|------------------------------------------------------------------------------|

======================================================================

Comments