Misc - Pentatonic Slinky Solo Chords & Tabs

 

Pentatonic Slinky Solo Chords & Tabs

Misc Chords & Tabs

Version: 1 Type: Tab 1 rating
1 star 2 stars 3 stars 4 stars 5 stars
comments

Pentatonic Slinky Solo Tab

HELLO THIS IS A LITTLE SOLO i LIKE TO PLAY IN THE PENATONIC MINOR SCALE IT 
IS REALLY VERSATILE AND IS A GREAT WAY OF LEARNING THE NOTES OF THE PENTATONIC SCALE WHICH IN G IS:

-3----6-------
-3----6---8-----
-3---5--7------         TRY SLIDING THE SCALE UP TO OTHER FRETS TO PLAY IN A DIFFERENT KEY
-3---5--------
-3-4-5---------
-3----6--------

------3------------------------------------------------------------------------------------------
-2/3-----3--6----3--------------3--------3--------3----------------------------------------------
---------------5---5--3-5-------3--------3--------3----------------------------------------------
--------------------------3--5-----5-3~5---5-3~5-----5--3-------------------------------3-3~5----
-------------------------------------------------------------5-4-3---------------3-4-5-----------
-----------------------------------------------------------------------6--3-3~6------------------

[ Tab from: http://www.guitartabs.cc/tabs/m/misc/pentatonic_slinky_solo_tab.html ]
-------------------------------------------------------------------------------------------------
--3----3-----3---3------6~~------6-----------------------------------------------------------8~~-
--3----3-----3---3--5/7-----7------7\5-3^------------------------------------------------5/7-----
----5-----5----5--------------------------5-5-3-----3-----3-----3-----3--------------------------
-------------------------------------------------5-----5-----5-----5----5--3---------------------
------------------------------------------------------------------------------6--3-3-3-----------

------3-----------------------------------------------------------------------------------------
--2/3---3-6-----3-----------------3----3---------3----------------------------------------------
-------------5-----5--3--5--------3----3---------3----------------------------------------------
----------------------------3--5----5----5--3~5-----5--3------------------------3-3~5~3---------
---------------------------------------------------------5-4-3-----------3-4-5----------3-------
-------------------------------------------------------------6-3--3~6---------------------6--3~~

LEGEND / = SLIDE UP
       \ = SLIDE DOWN
       ~ = HAMMER ON / PULL OFF
      ~~ = VIBRATO

tHAT'S IT FOLKS!! SHOULD GIVE YOU A PRETTY COOL COUNTRY SOUND!!TRY PLAYING IT OVER G AND F CHORDS IF
YOU WANNA PRACTICE PLAYIN IN TIME WITH ANOTHER GUITAR.

COMMENTS TO: dabrez@hotmail.com

WORD UP
Comments