Misc - Otherworld Chords & Tabs

 

Otherworld Chords & Tabs

Misc Chords & Tabs

Version: 1 Type: Tab 1 rating
1 star 2 stars 3 stars 4 stars 5 stars
comments

Otherworld Tab

pm - palm muted
^ - split harmonic
p - pull off
h - hammer on
v/~ - vibrato
b - bend
(note in brakets) - bend up to
Tab by Karl Borrowdale

This is the Final Fantasy X theme, sounds good and i saw that
nobody has tabbed the solo yet so i thought, what the hell lol


Intro:
======

eb|---------10------------------------------
Bb|---------13b(15)-------------10----------
Gb|-----------------------------12b(14)-----
Db|-0-0-------------0-0---------------------
Ab|-0-0-------------0-0---------------------
Db|-0-0-------------0-0---------------------    
                                                   x 2
eb|---------10----------------------
Bb|---------13b(15)-----------------
Gb|---------------------------------
Db|-0-0---------------6-5-6-5-6-5-3-
Ab|-0-0---------------6-5-6-5-6-5-3-
Db|-0-0---------------6-5-6-5-6-5-3-

Intro part 2/ Verse

eb|---------------------------------
Bb|---------------------------------
Gb|---------------------------------
Db|-----3p2-----5p3-----6--0-5p3--0-
Ab|-----3p2-----5p3-----6--0-5p3--0-
Db|-0-0-3p2-0-0-5p3-0-0-6--0-5p3--0-
   pm..     . .     . .    .

eb|---------------------------------
Bb|---------------------------------
Gb|---------------------------------
Db|----3p2-----5p3-----6--0-53-----
Ab|----3p2-----5p3-----6--0-53-----
Db|--0-3p2-0-0-5p3-0-0-6--0-53-----
   pm.     . .     . .

eb|---------------------------------
Bb|---------------------------------
Gb|---------------------------------
Db|-----3p2-----5p3-----6--0-5p3--0-
Ab|-----3p2-----5p3-----6--0-5p3--0-
Db|-0-0-3p2-0-0-5p3-0-0-6--0-5p3--0-
   pm..     . .     . .    .

eb|------------------------------|-------
Bb|------------------------------|-------
Gb|------------------------------|-------
Db|----3p2-----5p3-----6--0-53:-|-/15---
Ab|----3p2-----5p3-----6--0-53:-|-/15---
Db|--0-3p2-0-0-5p3-0-0-6--0-53:-|-/15---
   pm.     . .     . .

Intro part 2/ Verse

Verse riff 2 x 4


eb|------------------14-14-14--14--------------------------
Bb|-15-15-15---15----15-15-15--15--------------------------
Gb|-12-15-15---15------------------------------------------
Db|--------------------------------------------------------
Ab|--------------------------------------------------------
Db|--------------------------------------------------------


eb|-------------------------
Bb|-------------------------
Gb|-----------3-------------
Db|-------------------------
Ab|---------0---------------
Db|-0-2-3-5-----------------
   pm.. . . .

Verse
=====

Interlude
=========

eb|----------------------------------------------------------------------
Bb|----------------------------------------------------------------------
Gb|---------7---------------7---------------7---------------7------------
Db|-0-0-7-------7-0-0-0-8-------8-0-0-0-7-------7-0-0-0-6------6^--------
Ab|----------------------------------------------------------------------
Db|----------------------------------------------------------------------
   pm..             . .             . .             . . 

                                                              

eb|--------------------------------------------------------------------
Bb|--------------------------------------------------------------------
Gb|---------7---------------7---------------7---------------7----------
Db|-0-0-7-------7-0-0-0-8-------8-0-0-0-9-------9-0-0-0-8-----8^-------
Ab|--------------------------------------------------------------------
Db|--------------------------------------------------------------------
   pm..             . .             . .             . .




Pre-solo/solo background x 6
========================

eb|-------------------------------------
Bb|-------------------------------------
Gb|-----------------------------7^------
Db|-----3p2---5p3---3p2---5p3-----------
Ab|-----3p2---5p3---3p2---5p3-----------
Db|-0-0-3p2-0-5p3-0-3p2-0-5p3-0---------

eb|-------------------------------------
Bb|-------------------------------------
Gb|-------------------------------------
Db|-----5-----7-----5-----7-----0-------
Ab|-----5-----7-----5-----7-----0-------
Db|-0-0-5-0-0-7-0-0-5-0-0-7-0-0-0-------     
   pm..   . .   . .   . .   . .  


eb|--------------------------------------
Bb|--------------------------------------
Gb|--------------------------------------
Db|-----3p2---5p3---3p2---5p3------------
Ab|-----3p2---5p3---3p2---5p3---5^-------
Db|-0-0-3p2-0-5p3-0-3p2-0-5p3-0----------
[ Tab from: http://www.guitartabs.cc/tabs/m/misc/otherworld_tab.html ]
Solo background 2:
==================

eb|---------------------------------------------------------------|-----
Bb|---------------------------------------------------------------|-----
Gb|-------------------------2---5---7-----5-----2-----------------|-----
Db|-0-----3-----5-----6-----2---5---7-----5-----2-----6-----5---3-|--0:-
Ab|-0-----3-----5-----6-----0---3---5-----3-----0-----6-----5---3-|--0:-
Db|-0-----3-----5-----6-------------------------------6-----5---3-|--0:- x2

Solo

eb|--10-10-10-10-10-10-10-10----
Bb|--13b13b13b13b13b13b13b13b---
Gb|-----------------------------
Db|-----------------------------
Ab|-----------------------------
Db|-----------------------------

eb|-------------------------------------------------------------------
Bb|--13p10-13p10-13p10-13p10-13p10-13p10-13p10-13p10------------------
Gb|--------------------------------------------------12b(14b)12-12----
Db|----------------------------------------------------------------12v
Ab|-------------------------------------------------------------------
Db|-------------------------------------------------------------------

eb|---------------------------------------------
Bb|-----------10-------------------10-----------
Gb|-----------10-------------------10-----------
Db|--10-10-12----12-12-10-12-12-12-----12-10-12-
Ab|---------------------------------------------
Db|---------------------------------------------

eb|------------------------------------------------
Bb|--12--12--12-12b12b12b12B12B(12b14)12-----------
Gb|--12--12--12-12b12b12b12B12B(12b14)12-10-12v~~--
Db|------------------------------------------------
Ab|------------------------------------------------
Db|------------------------------------------------

eb|-------------------------------------------
Bb|--------10-13-10~---------10---------------
Gb|--------------------------10------------10-
Db|--10-12----------10-10-12----12---10-12----
Ab|-------------------------------------------
Db|-------------------------------------------

eb|--13p10-------10-10h13p10-13p10-------10-10h13p10--
Bb|--------13p10-------------------13p10--------------
Gb|---------------------------------------------------
Db|---------------------------------------------------
Ab|---------------------------------------------------
Db|---------------------------------------------------

eb|----13p10-------10-10h13p10---13p10-------10-10h13p--
Bb|----------13p10---------------------13p10------------
Gb|-----------------------------------------------------
Db|-----------------------------------------------------
Ab|-----------------------------------------------------
Db|-----------------------------------------------------

eb|----10--10-10/12-12-12/13-13-13/15-15/17-17/19/20b--
Bb|----------------------------------------------------
Gb|----------------------------------------------------
Db|----------------------------------------------------
Ab|----------------------------------------------------
Db|----------------------------------------------------

eb|----------------------------------------------------
Bb|----------------------------------------------------
Gb|----7~-10---12-13-14--17-19--17-14--13-1210--7~-10--
Db|----------------------------------------------------
Ab|----------------------------------------------------
Db|----------------------------------------------------

eb|------------------------------------------------------------
Bb|------------------------------------------------------------
Gb|-12-13-14--17-19--17-14--13-1210--7~~~b temolo--------------
Db|------------------------------------------------------------
Ab|------------------------------------------------------------
Db|------------------------------------------------------------


eb|--------------------------------------------------------------
Bb|-13b(15)-x8with wah-------------------------------------------
Gb|--------------------12p10p0--12p10p0-12p10p0-12p10p0-12p10p0--
Db|--------------------------------------------------------------
Ab|--------------------------------------------------------------
Db|--------------------------------------------------------------

eb|--------------------------------10-13B(15)-
Bb|--13p10-13p10-13p10-13p1013p10-------------
Gb|-------------------------------------------
Db|-------------------------------------------
Ab|-------------------------------------------
Db|------------------------------------------- 

The end, lol enjoy and Megalomania rule!!!

Comments