Misc - On Top Of Old Smokey Chords & Tabs

 

On Top Of Old Smokey Chords & Tabs

Misc Chords & Tabs

Version: 1 Type: Tab 2 ratings
1 star 2 stars 3 stars 4 stars 5 stars
comments

On Top Of Old Smokey Tab

Miscellaneous - On Top of Old Smokey

[ Tab from: http://www.guitartabs.cc/tabs/m/misc/on_top_of_old_smokey_tab.html ]
----------------------------------
----------------------------------
----------0-----------------------
--------0----2---2---0-2-0--------
------2------------3--------------
--3-3-----------------------------



----------------------------------
----------------------------------
----------------------------------
--------0-0-----------------------
------2------0---2-3-2-0----------
--3-3--------------------3--------


by Nyper_99@yahoo.com
Comments