Misc - Oh Canada Chords & Tabs

 

Oh Canada Chords & Tabs

Misc Chords & Tabs

Version: 1 Type: Bass Tab 0 ratings
1 star 2 stars 3 stars 4 stars 5 stars
comments

Oh Canada Bass Tab

Oh Canada!
tabbed by: ryan b

I play this song on my bass - however it sounds just as good on the guitar...
USE LOTS OF OVERDRIVE!!!

G-14--17--17--10-----------------

G-12--14--15--17--19--12---------

G-14--16--16--17-----------------

G-19--21--21--19--19--17---------

G-12--14--15--14--12-------------

G-14--15--17--15--14-------------
[ Tab from: http://www.guitartabs.cc/tabs/m/misc/oh_canada_btab.html ]
G-15--17--19--17--15--14--12-----

G-12--14--15--14--12-------------

G-14--15--17--15--14-------------

G-14--12--17--17--15--14--16--17-

G-14--17--17--10-----------------

G-15--17--17--17--12-------------

G-17--18--18--19-----------------

G-15--14--12--10--12--14---------

G-17--22--22--19-----------------

G-15--14--12--17---9--10---------
D------------------9--10---------
Comments