Misc - Nightmare Before Christmas Chords & Tabs

 

Nightmare Before Christmas Chords & Tabs

Misc Chords & Tabs

Version: 1 Type: Tab 1 rating
1 star 2 stars 3 stars 4 stars 5 stars
comments

Nightmare Before Christmas Tab

Song: Nightmare Before Christmas Theme Song
Tabbed By: Tim Barr
MX ID: SpADeD
Date: 1/25/04
Comments: There is a lover octave version below this one.
                                                            
E||------------|
B||---------15-|
G||------------|
D||---------15-|
A||------------|
E||------------|


                                                              
--13-----------10-13-15-17-18-|--17------0-------12-13-15-17-|
------------------15----15----|---------------14-14----14----|
--15------10------------------|--18--------------------------|
-------12-12------------------|------------------------------|
----------13------------------|-------16-16------------------|
------------------------------|----------17------------------|


                                                                         
--13-----------10-13-15-17-18-|--17------17------|--17----15--------22--|
--15--------------15----15----|--18---18-18---18-|--18-18-17-17-15--22--|
----------10------------------|-------19------19-|------------------22--|
-------12-12------------------|------------------|----------------------|
----------13------------------|------------------|----------------------|
------------------------------|------------------|----------------------|

                                                                         
                                                                         
|-------------0-|--3-------0-3-5-7-8-|--7-----------0-5-7-|
|-------------1-|--5---------5---5---|------------7-8-7---|
|---------------|--------------------|--8-------8-8-------|
|---------------|--------------------|--------------------|
|---------------|--------------------|--------------------|
|---------------|--------------------|--------------------|


                                                                    
--0-------0-0-5-7-8-|--7---7---7---7---|--7---7---7--7-|--8--------|
--8---------8---5---|--5-8---8---8---8-|----8---8-7--8-|--8--------|
--------------------|----------9-------|--9----------7-|--9--------|
--------------------|------------------|---------------|-----------|
--------------------|------------------|---------------|-----------|
--------------------|------------------|---------------|-----------|


                                                                              
------------|------------------7-8-|--7-----------0-5-7-|--0-------0-0-5-7-8-|
------------|--8----------8-10-----|------------7-8-7---|--8---------8---5---|
---------9--|--9-------9--9----9---|--8-------8-8-------|--------------------|
---------10-|----------10----------|--------------------|--------------------|
------------|----------------------|--------------------|--------------------|
------------|----------------------|--------------------|--------------------|


                                                                    
--7---7---7---7---|--7---7---7---7---|--7---7---7---7---|
--5-8-5-8-5-8-5-8-|--5-8-5-8-7-8-7-8-|----8---8---8---8-|
------------------|------------------|--9---9---9---9---|
------------------|------------------|------------------|
------------------|------------------|------------------|
------------------|------------------|------------------|


                                                              
--8-------0--|-----------|--8-7-5-7-8-7-5-8-|--7-5-0-5-7---0-|
-------8-----|-----------|------------------|--8-7-8-7-8-----|
-------------|--5------5-|--9-7-5-7-9-7-5-9-|----------------|
-------------|-----------|------------------|----------------|
-------------|-----------|------------------|----------------|
-------------|-----------|------------------|----------------|


                                                              
--8-7-5-7-8-7-5-8-|--7-5-0-5-7---0-|--10-8--6-8--10-8-----10-|
------------------|--8-7-8-7-8-----|--11-10-8-10-11-10-11----|
--9-7-5-7-9-7-5-9-|----------------|-------------------12----|
------------------|----------------|-------------------------|
------------------|----------------|-------------------------|
------------------|----------------|-------------------------|


                                                             
--9--8-6-8-9------|--9-7-5-7-9-7-9-11-|--12-11-9-12-11------|
------------------|-------------------|-------------13---13-|
--10-8-6-8-10---9-|--9----------------|--13--------------11-|
------------------|-------------------|---------------------|
------------------|-------------------|---------------------|
------------------|-------------------|---------------------|


                                                        
--9---------------------8--9-|--8------------------6-8-|
----------9-------9--11------|---------8------8-9--8---|
--10---10-10---10-10----10---|--9---9--9---9--9-10-----|
-------11------11------------|------10-----10----------|
-----------------------------|-------------------------|
-----------------------------|-------------------------|


                                                                           
------------------------8--9-|--8---8---8---8---8---8---|--8--8-9---------|
--9-------9-------9--11------|----9---9---9---9---9---9-|-----7-9---------|
--10---10-10---10-10----10---|--------------------------|-----8-10--------|
-------11------11------------|--------------------------|-----------------|
-----------------------------|--------------------------|-----------------|
-----------------------------|--------------------------|-----------------|


                                                                     
-----------4-----|--4-----4-6-8-9-8------|--------------6-8---------|
---------6-6---6-|--6---6-6---6----------|--8------8-9--8---9-------|
---------6-----6-|------6---------9---9--|--9---9--9-10-----10---10-|
-----------------|--------------------10-|------10---------------11-|
-----------------|-----------------------|--------------------------|
-----------------|-----------------------|--------------------------|


                                                             
----------------8--9-|--8----8---8---8---|--8---8---8---8---|
--9-------9--11------|-----9---9---9---9-|----9---9---9---9-|
--10---10-10----10---|-----------6-------|--7-------9-------|
-------11------------|--10---------------|------------------|
---------------------|-------------------|------------------|
---------------------|-------------------|------------------|


                                                                   
--8----8---8---8---|--9-6-9-6-9-8-9-11-|--13-11----11-13-11----11-|
-----9---9-7-9---9-|--8-------8--------|--------14----------14----|
--10-------8-------|--9-------9--------|--13----------14----------|
-------------------|-------------------|--15----------15----------|
-------------------|-------------------|--------------------------|
-------------------|-------------------|--------------------------|


                                                                      
--13----------13------|-----------------------|-------------------13-|
-----16-14-16-14---13-|--14----9----9----9----|--9----9----9----9----|
--15----------14---11-|--13-10---10---10---10-|----10---10---10------|
--15------------------|-----------------------|----------------------|
----------------------|-----------------------|----------------------|
----------------------|-----------------------|----------------------|


                                                                              



                                                                               
---------8-|--9------------------|----------------------|--9--8-6-8-9--8-6-9--|
---------7-|--9---9----9----9----|--9----9----9----9-11-|---------------------|
-----------|--10----10---10---10-|----10---10---10------|--10-8-6-8-10-8-6-10-|
-----------|---------------------|----------------------|---------------------|
-----------|---------------------|----------------------|---------------------|
-----------|---------------------|----------------------|---------------------|


                                                          
--8-6----6-8---6-|--9--8-6-8-9--8-6-9--|--8-6----6-8---9-|
--9-8-9--8-9-----|---------------------|--9-8-9--8-9-----|
------10---------|--10-8-6-8-10-8-6-10-|------10---------|
-----------------|---------------------|-----------------|
-----------------|---------------------|-----------------|
-----------------|---------------------|-----------------|


                                                                     
--11-9-----9--11-9-----11-|--10-9-7-9-10---9-|--10-8-6-8-10-8-10-12-|
--12-11-12-11-12-11-12----|------------------|----------------------|
--------13----------13----|--11-9-7-9-11-----|--10------------------|
--------------------------|------------------|----------------------|
--------------------------|------------------|----------------------|
--------------------------|------------------|----------------------|


                                                     
--13-12-10-13-12-----|------------------------------|
--------------14--14-|--15--------------------14-15-|
--14-----------------|--14------14------14-16-------|
---------------------|--16---16-16---16-16----16----|
---------------------|-------17------17-------------|
---------------------|------------------------------|


                                                              
------------------------------|------------------------9--10-|
--14--------------------12-14-|--10------10------10-12-------|
----------13------13-14-13----|--11---11-11---11-11----11----|
--15---15-15---15-15-16-------|-------12------12-------------|
-------16------16-------------|------------------------------|
------------------------------|------------------------------|


                                                                        
--9-----9----9----9----|--9-----9----9----9----|--9-----9----9----9----|
-----10---10---10---10-|-----10---10-9-10---10-|-----10---10-8-10---10-|
--11-------------------|--11-------------------|--11-------------------|
-----------------------|-----------------------|-----------------------|
-----------------------|-----------------------|-----------------------|
-----------------------|-----------------------|-----------------------|

[ Tab from: http://www.guitartabs.cc/tabs/m/misc/nightmare_before_christmas_tab.html ]
                                                                       
--10-9-7-9-10-9-10-12-|--14-12----12-14-12----12-|--14-12----12-14----|
--9-------------------|--15----15----14----15----|--15----15----15----|
--10------------------|--14----14----15----15----|--16----16----15----|
----------------------|--------------------------|--------------------|
----------------------|--------------------------|--------------------|
----------------------|--------------------------|--------------------|


                                                         
-----17-17-----18-18--|-----19-19-------|--21--0-------||
--10-18-18-----18-18--|--12-21-21-------|--22----------||
--10-19-19--15-19-19--|--13-22-22-------|--21----------||
--12--------15--------|--15-24-24-------|--23--19------||
------------17--------|--17-------------|------16------||
----------------------|-----------------|------17------||


Lower Octave Version:

E||-----------|
B||---------3-|
G||-----------|
D||---------3-|
A||-----------|
E||-----------|


                                                                     
--1---------------5-6-|--5-----------0-1-3-5-|--1---------------5-6-|
--------------6-8-----|------------2-2---2---|--3-----------6-8-----|
--3---------7-7---7---|--6-------------------|------------7-7---7---|
------0-0-------------|--------2-------------|------0-0-------------|
--------8-------------|------4-4-------------|--------8-------------|
--------6-------------|--------5-------------|--------6-------------|


                                                                             
--5-----5-----|--5---3------10--|
--6---6-6---6-|--6-6-5-5-3--10--|
------7-----7-|-------------10--|
--------------|-----------------|
--------------|-----------------|
--------------|-----------------|


                                                             
|---------------|
|---------------|
|---------------|
|-------------2-|
|-------------3-|
|---------------|


                                                               
--------------------|--------------------|--------------------|
----------------0-1-|--0---------------0-|----------------0-1-|
--0---------0-2-----|--------------0-2---|--0---------0-2-----|
--2-------2-2---2---|--1-------1-4-2-4---|--2-------2-2---2---|
--------------------|------------6-------|--------------------|
--------------------|--------------------|--------------------|


                                                                                
------------------|---------------|-----------|-----------|--------------------|
--0---0---0---0---|--0---0---0--0-|--1--------|-----------|----------------0-1-|
----0---0---0---0-|----0---0----0-|--0--------|-----------|--0---------0-2-----|
--2-------2-------|--2-------4--0-|--2--------|---------2-|--2-------2-2---2---|
------------------|---------------|-----------|---------3-|----------3---------|
------------------|---------------|-----------|-----------|--------------------|


                                                                                
--------------------|--------------------|------------------|------------------|
--0---------------0-|----------------0-1-|--0---0---0---0---|--0---0---0---0---|
--------------0-2---|--0---------0-2-----|----0---0---0---0-|----0---0---0---0-|
--1-------1-4-2-4---|--2-------2-2---2---|--2---2---2---2---|--2---2---4---4---|
------------6-------|--------------------|------------------|------------------|
--------------------|--------------------|------------------|------------------|


                                                                           
------------------|----------|-------------|-----------|------------------|
--0---0---0---0---|----------|--1----------|-----------|--1-0---0-1-0---1-|
----0---0---0---0-|----------|-------0-----|-----------|------2-------2---|
--2---2---2---2---|----------|----------2--|-----------|--2-0---0-2-0---2-|
------------------|----------|-------------|--3------3-|------3-------3---|
------------------|----------|-------------|-----------|------------------|


                                                                        
----------------|------------------|----------------|------------------|
--0-------0-----|--1-0---0-1-0---1-|--0-------0-----|--3-1---1-3-1---3-|
--0-2-0-2-0-----|------2-------2---|--0-2-0-2-0-----|--3-2-3-2-3-2-3---|
----4-2-4-----2-|--2-0---0-2-0---2-|----4-2-4-----2-|------5-------5---|
----------------|------3-------3---|----------------|------------------|
----------------|------------------|----------------|------------------|


                                                                            
----------------|------------------|--0-----0-------|----------------------|
--2-1---1-2-----|--2-0---0-2-0-2-4-|----4-2---4-----|--2---------------1-2-|
------3---------|------2-----------|--1-------5---5-|--------1-----1-3-----|
--3-1---1-3---2-|--2---------------|--------------4-|--3---3-3---3-3---3---|
------4---------|------------------|----------------|------4-----4---------|
----------------|------------------|----------------|----------------------|


                                                                         
----------------------|----------------------|--------------------------|
--1-----------------1-|------------------1-2-|--1---1---1---1---1---1---|
--------0-----0-1-3---|--1-----1-----1-3-----|----1---1---1---1---1---1-|
--2---2-2---2-2-3-5---|--3---3-3---3-3---3---|--------------------------|
------3-----3---------|------4-----4---------|--------------------------|
----------------------|----------------------|--------------------------|


                                                          
----------------|-----------------|----------------------|
--1----2--------|-----------------|------------1-2-1-----|
-----5-1--------|-----------1-----|--1-----1-3-----------|
-----4-3--------|---------3-3---3-|--3---3-3---3---2---2-|
-----6----------|---------4-----4-|------4-------------3-|
----------------|-----------------|----------------------|


                                                                              
----------------------|----------------|------------------|------------------|
--------------1-------|------------1-2-|--1---1-------1---|--1---1---1---1---|
--0-----0-1-3---1-----|--1-----1-3-----|----1---1-5-1---1-|----1---1---1---1-|
--2---2-2-3-5---3---3-|--3---3-3---3---|------------------|--0-------2-------|
------3-------------4-|------4---------|--3-------4-------|------------------|
----------------------|----------------|------------------|------------------|


                                                                          
------------------|------------------|--1-------1-------|--1-------1-----|
--1---1-----------|----------------4-|----4-2-4---4-2-4-|----4-2-4-2-----|
----1---1-5---5---|--6---6---6-5-6---|--1-------2-------|--3-------2---5-|
--3-------4-6---6-|--5-8---8-5-------|--3-------3-------|--3-----------4-|
----------6-------|--7-------7-------|------------------|----------------|
------------------|------------------|------------------|----------------|


                                                                    
------------------|----------------1-|
--2---------------|------------------|
--1---1---1---1---|--1---1---1---1---|
----3---3---3---3-|----3---3---3-----|
------------------|------------------|
------------------|------------------|


                                                                              
|-----------|-----------------|
|-----------|--2--------------|
|---------5-|--1--1---1---1---|
|---------4-|--3----3---3---3-|
|-----------|-----------------|
|-----------|-----------------|


                                                                          
------------------|------------------|----------------|------------------|
------------------|--2-1---1-2-1---2-|--1-------1-----|--2-1---1-2-1---2-|
--1---1---1---1-3-|------3-------3---|--1-3-1-3-1---3-|------3-------3---|
----3---3---3-----|--3-1---1-3-1---3-|----5-3-5-------|--3-1---1-3-1---3-|
------------------|------4-------4---|----------------|------4-------4---|
------------------|------------------|----------------|------------------|


                                                                        
----------------|------------------|----------------|----------------0-|
--1-------1---2-|--4-2-0-2-4-2-0-4-|--3-2-0-2-3---2-|--3-1---1-3-1-3---|
--1-3-1-3-1-----|--4-3-1-3-4-3-1---|----------------|------3-----------|
----5-3-5-------|------------------|--4-2-0-2-4-----|--3---------------|
----------------|------------------|----------------|------------------|
----------------|------------------|----------------|------------------|


                                                              
--1-0---1-0----|----------------------|----------------------|
------3---2--2-|--3-------------0-2-3-|--2---------------0-2-|
--2------------|--2-----2-----2-------|--------1-----1-2-1---|
---------------|--4---4-4---4-4---4---|--3---3-3---3-3-4-----|
---------------|------5-----5---------|------4-----4---------|
---------------|----------------------|----------------------|


                                                                                
----------------------|------------------|------------------|------------------|
----------------0-2-3-|--2---2---2---2---|--2---2---2---2---|--2---2---2---2---|
--2-----2-----2-------|----2---2---2---2-|----2---2-1-2---2-|----2---2-0-2---2-|
--4---4-4---4-4---4---|--4---------------|--4---------------|--4---------------|
------5-----5---------|------------------|------------------|------------------|
----------------------|------------------|------------------|------------------|


                                                                       
----------------0-|--2-0---0-2-0---0-|--2-0---0-2----|----5-5----6-6--|
--3-2-0-2-3-2-3---|--3---3---2---3---|--3---3---3----|----6-6----6-6--|
--1---------------|--2---2---3---3---|--4---4---3----|--2-7-7--3-7-7--|
--3---------------|------------------|---------------|--3------3------|
------------------|------------------|---------------|--5------5------|
------------------|------------------|---------------|----------------|


                                 
-----7--7--------|--9----------||
--0--9--9--------|--10---------||
-----10-10-------|--9---2------||
--0--12-12-------|--11--2------||
--11-------------|------4------||
--13-------------|------5------||








     








Comments