Misc - Needle Mans Theme Megaman Chords & Tabs

 

Needle Mans Theme Megaman Chords & Tabs

Misc Chords & Tabs

Version: 1 Type: Tab 0 ratings
1 star 2 stars 3 stars 4 stars 5 stars
comments

Needle Mans Theme Megaman Tab

Song: Megaman 3 : Needle Man                                                                               
Tabbed By: Tim Barr
MX ID: SpADeD
Date: 1/28/04
                                                                   
E||--20--------------18--|--21----------------|--20--------------18--|
B||----------------------|--------------------|----------------------|
G||----------------------|--------------------|----------------------|
D||----------------------|--------------------|----------------------|
A||----------------------|--------------------|----------------------|
E||----------------------|--------------------|----------------------|


                                                                 
--21----------------|--20--------------18--|--21----------------|
--------------------|----------------------|--------------------|
--------------------|----------------------|--------------------|
--------------------|----------------------|--------------------|
--------------------|----------------------|--------------------|
--------------------|----------------------|--------------------|


                                                             
------------------|-----------6-8-9-11-13-16-18-20-21-24-24-|
------------------|-----------------------------------------|
------------------|-----------------------------------------|
------------------|-----------------------------------------|
------------------|-----------------------------------------|
------------------|-----------------------------------------|


                                                              
----------------------------|--------------------------------|
----------------------------|--------------------------------|
----------------------------|----------------18--17--15--13--|
----20--18------18----20----|----20--18--20------------------|
------------20--------------|--------------------------------|
----------------------------|--------------------------------|


                                                                          
--------------------|----------------------------|-----------------------|
--------------------|----------------------------|-----------------------|
--------------------|----------------------------|--8------10------------|
--15----------------|------------------------10--|-------------11--------|
--------------------|----------------11--13------|-----------------------|
--------------------|--------13--14--------------|-----------------------|


                                             
------------------------|-------------------|
------------------------|--6----------------|
------------8--6--5--6--|-------------------|
--------11--------------|-------------------|
------------------------|-------------------|
------------------------|-------------------|


                                                                         
--13---------18-16-14-13-11-9-8-6-4-2-1---------|----6--4-----4----6----|
----------------------------------------4-2-1---|----------6------------|
----------------------------------------------3-|-----------------------|
------------------------------------------------|-----------------------|
------------------------------------------------|-----------------------|
------------------------------------------------|-----------------------|


                                                                        
----6--4--6--9--8--6--4--|-----------------4-----|--1------------------|
-------------------------|--6----------6-7----4--|-----------2----4----|
-------------------------|-----------------------|---------------------|
-------------------------|-----------------------|---------------------|
-------------------------|-----------------------|---------------------|
-------------------------|-----------------------|---------------------|


                                                                 
--1------------------|---------------------|--1--------5--------|
-------------4----2--|--4--------2----4----|--------------------|
---------------------|---------------------|--------------------|
---------------------|---------------------|--------------------|
---------------------|---------------------|--------------------|
---------------------|---------------------|--------------------|


                                                        
--8--------11----------|----------------9----13--------|
-----------------------|------------11-----------------|
-------------------11--|----10--11-----------------11--|
-----------------------|-------------------------------|
-----------------------|-------------------------------|
-----------------------|-------------------------------|


                                                                              
-----------------9--13----11--|------------------------|---------------------|
-------------11---------------|-----13-----------------|---------------------|
-----10--11-------------------|---------13-------------|-----------------11--|
------------------------------|------------------------|---------------------|
------------------------------|------------------------|---------------------|
------------------------------|------------------------|---------------------|


                                                                 
-----------------9----13---------|----------------9--13----16---|
-------------11------------------|------------11----------------|
-----10--11-----------------11---|----10--11--------------------|
---------------------------------|------------------------------|
---------------------------------|------------------------------|
---------------------------------|------------------------------|


                                                                          
--------13-------------|-------------------|----13--11--9--11--9--8----6-|
----16-----------------|-------------------|-----------------------------|
-----------------------|-------------------|-----------------------------|
-----------------------|-------------------|-----------------------------|
-----------------------|-------------------|-----------------------------|
-----------------------|-------------------|-----------------------------|


                                                                   
------------------|----13--11--9--11--9--8---6-|------------------|
------------------|----------------------------|------------------|
------------------|----------------------------|------------------|
------------------|----------------------------|------------------|
------------------|----------------------------|------------------|
------------------|----------------------------|------------------|


                                                                         
----13--11--9--11--9--8----|--6----4-----4----------|-------------------|
---------------------------|----------6-----6--4----|--6----------------|
---------------------------|------------------------|-------------------|
---------------------------|------------------------|-------------------|
---------------------------|------------------------|-------------------|
---------------------------|------------------------|-------------------|

[ Tab from: http://www.guitartabs.cc/tabs/m/misc/needle_mans_theme_megaman_tab.html ]
                                                                     
------------------|----6--4-----4----6----|----6--4--6--9--8--6--4--|
------------------|----------6------------|-------------------------|
------------------|-----------------------|-------------------------|
------------------|-----------------------|-------------------------|
------------------|-----------------------|-------------------------|
------------------|-----------------------|-------------------------|


                                                                  
-------------------|-----------------------|---------1-----------|
--6----------------|--------------------1--|--4---------2--------|
-------------------|--------------1--3-----|---------------------|
-------------------|--------3--4-----------|---------------------|
-------------------|-----------------------|---------------------|
-------------------|-----------------------|---------------------|


                                            
-----------------------|--1----------------|
--------2--4--2--1--2--|-------------------|
-----------------------|-------------------|
-----------------------|-------------------|
-----------------------|-------------------|
-----------------------|-------------------|


                                                                         
--13---------18-16-14-13-11-9-8-6-4-2-1---------|----6--4-----4----6----|
----------------------------------------4-2-1---|----------6------------|
----------------------------------------------3-|-----------------------|
------------------------------------------------|-----------------------|
------------------------------------------------|-----------------------|
------------------------------------------------|-----------------------|


                                                                        
----6--4--6--9--8--6--4--|-----------------4-----|--1------------------|
-------------------------|--6----------6-7----4--|-----------2----4----|
-------------------------|-----------------------|---------------------|
-------------------------|-----------------------|---------------------|
-------------------------|-----------------------|---------------------|
-------------------------|-----------------------|---------------------|


                                                                 
--1------------------|---------------------|--1--------5--------|
-------------4----2--|--4--------2----4----|--------------------|
---------------------|---------------------|--------------------|
---------------------|---------------------|--------------------|
---------------------|---------------------|--------------------|
---------------------|---------------------|--------------------|


                                                        
--8--------11----------|----------------9----13--------|
-----------------------|------------11-----------------|
-------------------11--|----10--11-----------------11--|
-----------------------|-------------------------------|
-----------------------|-------------------------------|
-----------------------|-------------------------------|


                                                                              
-----------------9--13----11--|------------------------|---------------------|
-------------11---------------|-----13-----------------|---------------------|
-----10--11-------------------|---------13-------------|-----------------11--|
------------------------------|------------------------|---------------------|
------------------------------|------------------------|---------------------|
------------------------------|------------------------|---------------------|


                                                                 
-----------------9----13---------|----------------9--13----16---|
-------------11------------------|------------11----------------|
-----10--11-----------------11---|----10--11--------------------|
---------------------------------|------------------------------|
---------------------------------|------------------------------|
---------------------------------|------------------------------|


                                                                          
--------13-------------|-------------------|----13--11--9--11--9--8----6-|
----16-----------------|-------------------|-----------------------------|
-----------------------|-------------------|-----------------------------|
-----------------------|-------------------|-----------------------------|
-----------------------|-------------------|-----------------------------|
-----------------------|-------------------|-----------------------------|


                                                                   
------------------|----13--11--9--11--9--8---6-|------------------|
------------------|----------------------------|------------------|
------------------|----------------------------|------------------|
------------------|----------------------------|------------------|
------------------|----------------------------|------------------|
------------------|----------------------------|------------------|


                                                                         
----13--11--9--11--9--8----|--6----4-----4----------|-------------------|
---------------------------|----------6-----6--4----|--6----------------|
---------------------------|------------------------|-------------------|
---------------------------|------------------------|-------------------|
---------------------------|------------------------|-------------------|
---------------------------|------------------------|-------------------|


                                                                     
------------------|----6--4-----4----6----|----6--4--6--9--8--6--4--|
------------------|----------6------------|-------------------------|
------------------|-----------------------|-------------------------|
------------------|-----------------------|-------------------------|
------------------|-----------------------|-------------------------|
------------------|-----------------------|-------------------------|


                                                                  
-------------------|-----------------------|---------1-----------|
--6----------------|--------------------1--|--4---------2--------|
-------------------|--------------1--3-----|---------------------|
-------------------|--------3--4-----------|---------------------|
-------------------|-----------------------|---------------------|
-------------------|-----------------------|---------------------|


                                            
-----------------------|--1----------------|
--------2--4--2--1--2--|-------------------|
-----------------------|-------------------|
-----------------------|-------------------|
-----------------------|-------------------|
-----------------------|-------------------|


                                                     
--13---------18-16-14-13-11-9-8-6-4-2-1--------|---||
----------------------------------------4-2-1--|---||
-----------------------------------------------|---||
-----------------------------------------------|---||
-----------------------------------------------|---||
-----------------------------------------------|---||


Comments