Misc - Neat Tune Chords & Tabs

 

Neat Tune Chords & Tabs

Misc Chords & Tabs

Version: 1 Type: Tab 0 ratings
1 star 2 stars 3 stars 4 stars 5 stars
comments

Neat Tune Tab

I developed this odd riff while trying to tab Emmet Ray's "I'll See You In My Dreams."
It is vaguely reminiscent of that sound, but it is a far cry from what I was aiming at.
 
These two are alternate versions, really; I never play them together.
Also, if you are going to play it continously, let the last note ring.                                           


[ Tab from: http://www.guitartabs.cc/tabs/m/misc/neat_tune_tab.html ]
e |----------------------------------------------
B |----------------------------------------------
G |----------------------------------------------
D |----------------------------------------------
A |----7-9s12p11----7-9s12p11p12p11p12p11-9------
E |--9------------9-------------------------9-9--

e |---------5s4--------5p4p5p4p5p4--------
B |-----5-7--------5-7-------------7------
G |----------------------------------6-6--
D |--7-----------7------------------------
A |---------------------------------------
E |---------------------------------------

Questions, comments, evanescent slices of apple pie? sean@rapacious.org
Comments