Misc - Mexican Song Chords & Tabs

 

Mexican Song Chords & Tabs

Misc Chords & Tabs

Version: 1 Type: Tab 1 rating
1 star 2 stars 3 stars 4 stars 5 stars
comments

Mexican Song Tab

   
this is my first tab...i hope u guys enjoy it

[ Tab from: http://www.guitartabs.cc/tabs/m/misc/mexican_song_tab.html ]
1-0-1-3-1-0------------------------------------|------0--|
2-----------3-1-3-1-0---0---0------------------|-----0---|
3---------------------2---2----1---1---1-------|----0----|
4--------------------------------3---3---2-0-2-|---2-----|
5----------------------------------------------|--2------|
6----------------------------------------------|-0-------|
   E       F           G       E7       G         E7
1----------------------------------------------|---0-----|
2-0-1-3-1-0---0---0----------------------------|---0-----|
3-----------2---2---1---1---1------------------|---0-----|
4---------------------3---3---2-0-2------------|---2-----|
5----------------------------------------------|---2-----|
6----------------------------------------------|---0-----|


E--0---0---0-----0---0---0----0---0---0---0---0---0----
B--------0-------------0--------1---0------------------
G----1-------------1--------2-----------2---0----------REPEAT MANY TIMES
D-2------------2--------------------------------3------
A------------------------------------------------------
E------------------------------------------------------


end with|------0--|
        |-----0---|
        |----0----|
        |---2-----|
        |--2------|
        |-0-------|
Comments