Misc - Mexican Hat Dance Chords & Tabs

 

Mexican Hat Dance Chords & Tabs

Misc Chords & Tabs

Version: 3 Type: Tab 2 ratings
1 star 2 stars 3 stars 4 stars 5 stars
comments

Mexican Hat Dance Tab

   
Standard Tuning    E A D G B E


-----------------------------------------------------------------------------------------
---0--5--0--5--0--5-----0--5--7--5--4--5--7----0--4--0--4--0--4----0--4--5--4--2--4--5---
-----------------------------------------------------------------------------------------
-----------------------------------------------------------------------------------------
-----------------------------------------------------------------------------------------
-----------------------------------------------------------------------------------------


[ Tab from: http://www.guitartabs.cc/tabs/m/misc/mexican_hat_dance_tab_ver_3.html ]
-------7-7-7--4-4-4----------------------------------------------------------------------
------------------------5------------------------------7---4---4-4--7-7-7---4-4-4--------
-----------------------------4---4-4--6-6-6---8-8-8---------------------------------4----
---------------------------------------------------------------------------------------4-
-----------------------------------------------------------------------------------------
-----------------------------------------------------------------------------------------



---7-7-7---4-4-4-------------------------------------------------------------------------
---------------------5~------------------------------------------------------------------
-----------------------------------------------------------------------------------------
-----------------------------------------------------------------------------------------
-----------------------------------------------------------------------------------------
-----------------------------------------------------------------------------------------
Comments