Misc - Mexian Style Chords & Tabs

 

Mexian Style Chords & Tabs

Misc Chords & Tabs

Version: 1 Type: Tab 0 ratings
1 star 2 stars 3 stars 4 stars 5 stars
comments

Mexian Style Tab

All right, i've only been playing for like a year, and this is my first
tab so take it easy on me

This is an actual song but i have no clue who plays it.

standard tuning

--------------------------------------------------------------------
------2--2-----2--2-----2--2--------------2--2------2--2------2--2--
------2--2-----2--2-----2--2--------------2--2------2--2------2--2--
------2--2-----2--2-----2--2--------------2--2------2--2------2--2--
--0------------------0-----------------0-------------------0--------
------------0-----------------0--2--4------------0------------------
[ Tab from: http://www.guitartabs.cc/tabs/m/misc/mexian_style_tab.html ]
--------------------------------------------------------------------
---------------3--3------3--3-----3--3---------------2--2------2--2-
---------------1--1------1--1-----1--1---------------2--2------2--2-
---------------2--2------2--2-----2--2---------------2--2------2--2-
--------1--2-------------------2------------------0-----------------
--2--4---------------0-------------------0--2--4------------0-------

------------------------------------------0-0-----------------------
----2-------------------------------------0-2-----------------------
----2-------------------------------------1-2-----------------------
----2---------------4--2--0---------------2-2-----------------------
-0--------------0------------4--2--0------2-0-----------------------
-------0--2--4----------------------------0-0-----------------------

there it is, you can alternate as many times as you want between A and
E7th once you get used to it.  any question- Kukubarabajackle@hotmail.com
Comments