Misc - Metal Riffs Chords & Tabs

 

Metal Riffs Chords & Tabs

Misc Chords & Tabs

Version: 2 Type: Tab 0 ratings
1 star 2 stars 3 stars 4 stars 5 stars
comments

Metal Riffs Tab

E||-----------------12-17h12-------------------------|
B||--------------13----------13----------------------|
G||-----------14----------------14----------------14-|
D||--------14----------------------14----------15----|
A||--12h15----------------------------15-12h17-------|
E||--------------------------------------------------|


                                                   
-----13-17h13----------------------------10-15h10-|
--15----------15----------------------12----------|
-----------------14----------------12-------------|
--------------------15----------12----------------|
-----------------------17-10h14-------------------|
--------------------------------------------------|


                                                   
-----------------------------12-15h12-------------|
--12----------------------13----------13----------|
-----12----------------12----------------12-------|
--------12----------14----------------------14----|
-----------14-10h15----------------------------15-|
--------------------------------------------------|


                                               
----------------8-13h8------------------------|
-------------10--------10---------------------|
----------10--------------10---------------10-|
-------10--------------------10---------12----|
--8h12--------------------------12-8h13-------|
----------------------------------------------|


                                             
-----10-13h10------------------------7-12h7-|
--11----------11-------------------9--------|
-----------------10--------------9----------|
--------------------12---------9------------|
-----------------------13-7h11--------------|
--------------------------------------------|


                                                              
------------------------8-12-8------------|------------------|
--9------------------10--------10---------|------------------|
----9--------------9--------------9-------|------------------|
------9---------10------------------10----|------------------|
--------11-7h12------------------------12-|------------------|
------------------------------------------|------------------|

[ Tab from: http://www.guitartabs.cc/tabs/m/misc/metal_riffs_tab_ver_2.html ]
                                                
|----------7-10h7------------10-13h10----------|
|--------9--------9-------12----------12-------|
|*--7/10------------10/13----------------13/16-|
|*---------------------------------------------|
|----------------------------------------------|
|----------------------------------------------|


                                                          
-----13-16h13-------------16~--------||------------------|
--15----------15-------18------------||------------------|
-----------------16-19--------------*||------------------|
------------------------------------*||------------------|
-------------------------------------||------------------|
-------------------------------------||------------------|


                                                   
--------------------------------------------------|
--------12-17h12----------12-17h12----------12-15h|
-----13----------13----13----------13----13-------|
--14----------------14----------------14----------|
--------------------------------------------------|
--------------------------------------------------|


                                                   
--------------------------------------------------|
--12----------12-15h12----------13-17h13----------|
-----13----13----------13----14----------14----14-|
--------14----------------15----------------15----|
--------------------------------------------------|
--------------------------------------------------|


                                                   
--------------------------------------------------|
--13-15h13----------14-17h14----------14-17h14----|
-----------14----15----------15----15----------15-|
--------------16----------------16----------------|
--------------------------------------------------|
--------------------------------------------------|


                                                   
--------------------------------------------------|
--------13-17h13----------13-17h13----------12-17h|
-----14----------14----14----------14----13-------|
--15----------------15----------------14----------|
--------------------------------------------------|
--------------------------------------------------|


                                       
------------------------------|
--12--------------------------|
-----13-----------------------|
--------14--------------------|
------------14/---11----------|
------------------------12~---|
Comments