Misc - Metal Riffs Chords & Tabs

 

Metal Riffs Chords & Tabs

Misc Chords & Tabs

Version: 1 Type: Tab 0 ratings
1 star 2 stars 3 stars 4 stars 5 stars
comments

Metal Riffs Tab

E||--10-13-12-10-7-10-9-7-8-12-10-8-5-8-7-5-|--7-10-8-7-4-7-5-4-5~-------|
B||-----------------------------------------|----------------------------|
G||-----------------------------------------|----------------------------|
D||-----------------------------------------|----------------------------|
A||-----------------------------------------|----------------------------|
E||-----------------------------------------|----------------------------|


                                        
--7-4-5-7-8-5-7-8-10-7-8-10-12-8-10-12-|
---------------------------------------|
---------------------------------------|
---------------------------------------|
---------------------------------------|
---------------------------------------|


                                     
--13-10-12-13-16-13-16-19-17~-------|
------------------------------------|
------------------------------------|
------------------------------------|
------------------------------------|
------------------------------------|


                                               
--10-13-12-13-10-13-12-13-7-10-8-10-7-10-8-10-|
----------------------------------------------|
----------------------------------------------|
----------------------------------------------|
----------------------------------------------|
----------------------------------------------|

[ Tab from: http://www.guitartabs.cc/tabs/m/misc/metal_riffs_tab.html ]
                                         
--8-12-10-12-8-12-10-12-5-8-7-8-5-8-7-8-|
----------------------------------------|
----------------------------------------|
----------------------------------------|
----------------------------------------|
----------------------------------------|


                                                                          
--7-10-8-10-7-10-8-10-4-7-5-7-4-7-5-7-|--5-8-7-8-5-8-7-8-4-7-5-7-4-7-5-7-|
--------------------------------------|----------------------------------|
--------------------------------------|----------------------------------|
--------------------------------------|----------------------------------|
--------------------------------------|----------------------------------|
--------------------------------------|----------------------------------|


                                          
--5-8-7-8-5-8-7-8-10-13-12-13------------|
------------------------------9-12-10-12-|
-----------------------------------------|
-----------------------------------------|
-----------------------------------------|
-----------------------------------------|


                                                        
---------------------------------|--------------------||
---------------------------------|--------------------||
--7-10-9-10----------------------|--------------------||
------------6-9-7-9--------------|--------------------||
--------------------5-8-7-8-7----|--------------------||
---------------------------------|--4----5~-----------||
Comments