Misc - Megaman 3 Protomans Ending Theme Chords & Tabs

 

Megaman 3 Protomans Ending Theme Chords & Tabs

Misc Chords & Tabs

Version: 1 Type: Tab 0 ratings
1 star 2 stars 3 stars 4 stars 5 stars
comments

Megaman 3 Protomans Ending Theme Tab

Game: Megaman 3
Song: Protoman's Ending Theme
Tabbed By: Tim Barr
MX ID: SpADeD
Date: 12/26/03
Comments: Props to OC REMIX for inspiring me to tab this amazing song                              


Guitar 1:  (Lead)                                                      
E||------18--18-20---------18--|--18-22------------18--|
B||--20------------------------|---------------20------|
G||----------------------------|-----------------------|
D||----------------------------|-----------------------|
A||----------------------------|-----------------------|
E||----------------------------|-----------------------|


                                                                    
--20-21----20----18------|--15--------15--18--|--18-20---------18--|
---------------------18--|--------------------|--------------------|
-------------------------|--------------------|--------------------|
-------------------------|--------------------|--------------------|
-------------------------|--------------------|--------------------|
-------------------------|--------------------|--------------------|


                                                                     
--18-22------------18--|--20-21----20----18------|--15------18------|
---------------20------|---------------------18--|------------------|
-----------------------|-------------------------|------------------|
-----------------------|-------------------------|------------------|
-----------------------|-------------------------|------------------|
-----------------------|-------------------------|------------------|


                                                                              
----20----------|--20-22-------------18--22--|--18-20-----18----17--17-18----|
----------------|----------------20----------|-------------------------------|
----------------|----------------------------|-------------------------------|
----------------|----------------------------|-------------------------------|
----------------|----------------------------|-------------------------------|
----------------|----------------------------|-------------------------------|


                                                         
--15----15--17----17--17-18----|------17----15--17------|
-------------------------------|------------------------|
-------------------------------|------------------------|
-------------------------------|------------------------|
-------------------------------|------------------------|
-------------------------------|------------------------|


                                                             
--20-22-------------18--22--|--18-20-----18----17--17-18----|
----------------20----------|-------------------------------|
----------------------------|-------------------------------|
----------------------------|-------------------------------|
----------------------------|-------------------------------|
----------------------------|-------------------------------|


                                                                                
--22----22--20----20--20-22----|------------------|--20-22-------------18--22--|
-------------------------------|------------------|----------------20----------|
-------------------------------|------------------|----------------------------|
-------------------------------|------------------|----------------------------|
-------------------------------|------------------|----------------------------|
-------------------------------|------------------|----------------------------|


                                                                
--18-20-----18----17--17-18----|--15----15--17----17--17-18----|
-------------------------------|-------------------------------|
-------------------------------|-------------------------------|
-------------------------------|-------------------------------|
-------------------------------|-------------------------------|
-------------------------------|-------------------------------|


                                                      
------17----15--17------|--20-22-------------18--22--|
------------------------|----------------20----------|
------------------------|----------------------------|
------------------------|----------------------------|
------------------------|----------------------------|
------------------------|----------------------------|


                                                                
--18-20-----18----17--17-18----|--15----15--17----17--17-18----|
-------------------------------|-------------------------------|
-------------------------------|-------------------------------|
-------------------------------|-------------------------------|
-------------------------------|-------------------------------|
-------------------------------|-------------------------------|


                                                                               
|------------3--6--8--|
|---------------------|
|---------------------|
|---------------------|
|---------------------|
|---------------------|


                                                     
--8-9----8--------8-13-11--|--10------------11--13--|
---------------------------|------------------------|
---------------------------|------------------------|
---------------------------|------------------------|
---------------------------|------------------------|
---------------------------|------------------------|


                                                                                
--10--------------------8--|--9------------11--13--|---------------------------|
--------11--11------11-----|-----------------------|--13--------------------9--|
---------------------------|-----------------------|--------13--13------10-----|
---------------------------|-----------------------|---------------------------|
---------------------------|-----------------------|---------------------------|
---------------------------|-----------------------|---------------------------|


                                                                     
------------------8--6--|--5------------------|---------------6--8--|
--11----------11--------|-------7-------------|------------8--------|
------------------------|----------7----------|---------------------|
------------------------|---------------------|---------------------|
------------------------|---------------------|---------------------|
------------------------|---------------------|---------------------|


                                                     
--8-9----8--------8-13-11--|--10------------11--13--|
---------------------------|------------------------|
---------------------------|------------------------|
---------------------------|------------------------|
---------------------------|------------------------|
---------------------------|------------------------|


                                                          
--15--------------------------|--------------------------|
--------16--------------------|------------------13------|
------------17----17------14--|--15----------15------15--|
----------------------17------|--------------------------|
------------------------------|--------------------------|
------------------------------|--------------------------|


                                                                      
--------------------------|-------------------|--------------10--11--|
--------------------10----|--8----------------|----------------------|
--14----12----10----------|-------------------|----------------------|
--------------------------|-------------------|----------------------|
--------------------------|-------------------|----------------------|
--------------------------|-------------------|----------------------|


                                                        
--11-13----13--13----13----13--|------11----10----8----|
-------------------------------|-----------------------|
-------------------------------|-----------------------|
-------------------------------|-----------------------|
-------------------------------|-----------------------|
-------------------------------|-----------------------|


                                                   
---------------------------|--------------10--11--|
--10----11--10----8--------|----------------------|
-----------------------10--|----------------------|
---------------------------|----------------------|
---------------------------|----------------------|
---------------------------|----------------------|


                                                        
--11-13----13--13----13----13--|------11----10----8----|
-------------------------------|-----------------------|
-------------------------------|-----------------------|
-------------------------------|-----------------------|
-------------------------------|-----------------------|
-------------------------------|-----------------------|


                                                   
---------------------------|--------------13--14--|
--10----11--10----8--------|----------------------|
-----------------------10--|----------------------|
---------------------------|----------------------|
---------------------------|----------------------|
---------------------------|----------------------|


                                                         
--15-16----16--16----16----16--|------14----13----11----|
-------------------------------|------------------------|
-------------------------------|------------------------|
-------------------------------|------------------------|
-------------------------------|------------------------|
-------------------------------|------------------------|


                                                                        
----------------------------|------------8----9----|-------------------|
--13----14--13----------11--|------11--------------|--9----------------|
------------------13--------|----------------------|-------------------|
----------------------------|----------------------|-------------------|
----------------------------|----------------------|-------------------|
----------------------------|----------------------|-------------------|


                                                                         
------16----14----13----|--11----------11--13--11--|--10----------------|
------------------------|--------------------------|--------------------|
------------------------|--------------------------|--------------------|
------------------------|--------------------------|--------------------|
------------------------|--------------------------|--------------------|
------------------------|--------------------------|--------------------|


                                                                           
---------------6--8--|--8-9----8--------8-13-11--|--10------------11--13--|
------------8--------|---------------------------|------------------------|
---------------------|---------------------------|------------------------|
---------------------|---------------------------|------------------------|
---------------------|---------------------------|------------------------|
---------------------|---------------------------|------------------------|


                                                          
--15--------------------------|--------------------------|
--------16--------------------|------------------13------|
------------17----17------14--|--15----------15------15--|
----------------------17------|--------------------------|
------------------------------|--------------------------|
------------------------------|--------------------------|


                                                                       
--------------------------|-------------------|---------------11--10--|
--------------------10----|--8----------------|------------8----------|
--14----12----10----------|-------------------|-----------------------|
--------------------------|-------------------|-----------------------|
--------------------------|-------------------|-----------------------|
--------------------------|-------------------|-----------------------|


                                                      
--11--------------11--10--|--11--------------11--10--|
--------------------------|--------------------------|
--------------12----------|--------------12----------|
--------------------------|--------------------------|
--------------------------|--------------------------|
--------------------------|--------------------------|


                                                         
--13----11--11----10----8--|--8--6--8--10-------11--10--|
---------------------------|-----------------8----------|
---------------------------|----------------------------|
---------------------------|----------------------------|
---------------------------|----------------------------|
---------------------------|----------------------------|


                                                      
--11--------------11--10--|--11--------------11--10--|
--------------------------|--------------------------|
--------------12----------|--------------12----------|
--------------------------|--------------------------|
--------------------------|--------------------------|
--------------------------|--------------------------|

[ Tab from: http://www.guitartabs.cc/tabs/m/misc/megaman_3_protomans_ending_theme_tab.html ]
                                                                               
--13----11--11----10----8--|--8--10--------------------|----------------------|
---------------------------|---------8-----------------|----------------------|
---------------------------|------------10----8--8--7--|--7----------8--8--7--|
---------------------------|---------------------------|----------------------|
---------------------------|---------------------------|----------------------|
---------------------------|---------------------------|----------------------|


                                                                   
-------------------5--|--8--------6----5--6--|--------------6--8--|
----------------8-----|----------------------|--------------------|
--7----------7--------|----------------------|--------------------|
----------------------|----------------------|--------------------|
----------------------|----------------------|--------------------|
----------------------|----------------------|--------------------|


                                                                              
--10------------------8--|--10----8----10----11----|--8----------------------|
--------------11--11-----|-------------------------|-------10----10----------|
-------------------------|-------------------------|-------------------10----|
-------------------------|-------------------------|-------------------------|
-------------------------|-------------------------|-------------------------|
-------------------------|-------------------------|-------------------------|


                                                             
-----------------------||------------3--6--8--|
------------------6----||---------------------|
--10----7----8---------||---------------------|
-----------------------||---------------------|
-----------------------||---------------------|
-----------------------||---------------------|


                                                     
--8-9----8--------8-13-11--|--10------------11--13--|
---------------------------|------------------------|
---------------------------|------------------------|
---------------------------|------------------------|
---------------------------|------------------------|
---------------------------|------------------------|


                                                                                
--10--------------------8--|--9------------11--13--|---------------------------|
--------11--11------11-----|-----------------------|--13--------------------9--|
---------------------------|-----------------------|--------13--13------10-----|
---------------------------|-----------------------|---------------------------|
---------------------------|-----------------------|---------------------------|
---------------------------|-----------------------|---------------------------|


                                                
------------------8--6--|--5------------------||
--11----------11--------|-------7-------------||
------------------------|----------7----------||
------------------------|---------------------||
------------------------|---------------------||
------------------------|---------------------||


Guitar 2:  (Rythm)
E|---------------10------|--------------------|------------------3----|
B|--8----------------11--|--------------------|----------6----6-------|
G|-----------------------|--10----------------|--8----8---------------|
D|-----------------------|--------------------|-----------------------|
A|-----------------------|--------------------|-----------------------|
E|-----------------------|--------------------|-----------------------|


                                                                
-------------1------|--3------------10--6--|-------------------|
----------4---------|----------------------|--6----------------|
--------------------|----------------------|-------------------|
--------------------|----------------------|-------------------|
--------------------|----------------------|-------------------|
--------------------|----------------------|-------------------|


                                                                         
--3----3--1----1--3----|------3--6--10--8--6--5--|--3------------10--6--|
-----------------------|-------------------------|----------------------|
-----------------------|-------------------------|----------------------|
-----------------------|-------------------------|----------------------|
-----------------------|-------------------------|----------------------|
-----------------------|-------------------------|----------------------|


                                                                 
-------------------|----------1----1--3----|-------------1------|
--6----------------|--4----4---------------|----------4---------|
-------------------|-----------------------|--------------------|
-------------------|-----------------------|--------------------|
-------------------|-----------------------|--------------------|
-------------------|-----------------------|--------------------|


                                                                   
--3------------10--6--|-------------------|-----------------------|
----------------------|--6----------------|----------1----1--3----|
----------------------|-------------------|--3----3---------------|
----------------------|-------------------|-----------------------|
----------------------|-------------------|-----------------------|
----------------------|-------------------|-----------------------|


                                                      
------------------|--22--22--22--22--22--22--22--22--|
------------------|----------------------------------|
------------------|----------------------------------|
------------------|----------------------------------|
------------------|----------------------------------|
------------------|----------------------------------|


                                                           
--22--22--22--22--22--22--22----|-------------------------|
--------------------------------|-------------------------|
--------------------------------|--0----------------------|
--------------------------------|-------------------------|
--------------------------------|-------------17----------|
--------------------------------|-------18----------18----|


                                                                               
--------------------------|--------------------------|------------------------|
--------------------------|--------------------------|------------------------|
--------------------------|--------------------------|-------------------7----|
--------------12----------|--------------------12----|--------------8---------|
--------12----------12----|--------11----13----------|--------10--------------|
--14----------------------|--13----------------------|--11--------------------|


                                                                     
----------------------|----------------------|----------------------|
-----------------2----|-----------------1----|-----------------1----|
------------3---------|------------1---------|------------0---------|
-------5--------------|-------3--------------|-------1--------------|
--6-------------------|--4-------------------|--3-------------------|
----------------------|----------------------|----------------------|


                                                                     
----------------------|----------------------|----------------------|
----------------------|------------3---------|------------3---------|
------------2---------|--0----3---------3----|-------2---------2----|
--0----4---------4----|----------------------|--4-------------------|
----------------------|----------------------|----------------------|
----------------------|----------------------|----------------------|


                                                                     
----------------------|----------------------|----------------------|
-----------------3----|-----------------3----|-----------------3----|
-------1----3---------|-------0----3---------|-------0----3---------|
--3-------------------|--1-------------------|--1-------------------|
----------------------|----------------------|----------------------|
----------------------|----------------------|----------------------|


                                                                     
----------------------|----------------------|------------3----7----|
------------1----3----|----------------------|--0----3--------------|
-------2--------------|-----------------0----|----------------------|
--3-------------------|------------0---------|----------------------|
----------------------|-------2--------------|----------------------|
----------------------|--3-------------------|----------------------|


                                                                     
----------------------|----------------------|----------------------|
----------------------|----------------------|----------------------|
------------0----3----|------------2---------|----------------------|
-------1--------------|-------3---------3----|-------0----3----0----|
--3-------------------|--3-------------------|--1-------------------|
----------------------|----------------------|----------------------|


                                                                     
----------------------|----------------------|----------------------|
----------------------|----------------------|----------------------|
----------------------|------------0----3----|------------2---------|
-------0----3----0----|-------1--------------|-------3---------3----|
--1-------------------|--3-------------------|--3-------------------|
----------------------|----------------------|----------------------|


                                                                     
----------------------|----------------------|----------------------|
----------------------|----------------------|-----------------2----|
----------------------|----------------------|------------3---------|
-------0----3----0----|-------0----3----0----|--1----4--------------|
--1-------------------|--1-------------------|----------------------|
----------------------|----------------------|----------------------|


                                                                     
----------------------|----------------------|----------------------|
----------------------|-----------------1----|------------1----2----|
----------------------|------------1---------|-------1--------------|
------------1----4----|-------3--------------|--3-------------------|
-------3--------------|--4-------------------|----------------------|
--4-------------------|----------------------|----------------------|


                                                                     
----------------------|----------------------|------------1---------|
-----------------1----|-----------------1----|-------4---------4----|
------------1---------|------------1---------|--3-------------------|
--1----4--------------|--1----4--------------|----------------------|
----------------------|----------------------|----------------------|
----------------------|----------------------|----------------------|


                                                                     
------------1---------|----------------------|----------------------|
-------3---------3----|------------3---------|------------3---------|
--3-------------------|--0----3---------3----|-------2---------2----|
----------------------|----------------------|--4-------------------|
----------------------|----------------------|----------------------|
----------------------|----------------------|----------------------|


                                                                     
----------------------|----------------------|----------------------|
-----------------3----|-----------------3----|-----------------3----|
-------1----3---------|-------0----3---------|-------0----3---------|
--3-------------------|--1-------------------|--1-------------------|
----------------------|----------------------|----------------------|
----------------------|----------------------|----------------------|


                                                                         
----------------------|----------------------|--15--15--13--15----------|
------------1----3----|----------------------|--15--15--13--15----------|
-------2--------------|-----------------0----|--------------------------|
--3-------------------|------------0---------|--------------------------|
----------------------|-------2--------------|--------------------------|
----------------------|--3-------------------|--------------------------|


                                                         
-----------------------------|--------------------------|
-----------------------8-----|--------------------1-----|
--------------------8-----8--|-----------------2-----2--|
-------------8--10-----------|-----------1--3-----------|
---------10------------------|-----0--3-----------------|
--8--11----------------------|--1-----------------------|


                                                       
--------------------1--5--|--10--6--------------------|
-----------------3--------|---------6-----------------|
-----------2--3-----------|------------7--------------|
-----0--3-----------------|---------------8-----0-----|
--1-----------------------|------------------8--------|
--------------------------|------------------------6--|


                                                      
--------------------3-----|--------------------------|
--------------1--4-----4--|--------------------1-----|
--------0--3--------------|-----------------2-----2--|
-----1--------------------|-----------1--3-----------|
--3-----------------------|-----0--3-----------------|
--------------------------|--1-----------------------|


Comments