Misc - Megaman 2 Password Theme Chords & Tabs

 

Megaman 2 Password Theme Chords & Tabs

Misc Chords & Tabs

Version: 1 Type: Tab 0 ratings
1 star 2 stars 3 stars 4 stars 5 stars
comments

Megaman 2 Password Theme Tab

Song: Megaman 2: Password Theme
Tabbed By: Tim Barr
MX ID: SpADeD
Date: 1/26/04
                                                                   
E||--16----16----14---14----14-|--14---14----12----12-12--12--14--|
B||----------------------------|----------------------------------|
G||----------------------------|----------------------------------|
D||----------------------------|----------------------------------|
A||----------------------------|----------------------------------|
E||----------------------------|----------------------------------|


                                                                
--16----16----14---14----14-|--14---14----13----13-13--13--14--|
----------------------------|----------------------------------|
----------------------------|----------------------------------|
----------------------------|----------------------------------|
----------------------------|----------------------------------|
----------------------------|----------------------------------|

[ Tab from: http://www.guitartabs.cc/tabs/m/misc/megaman_2_password_theme_tab.html ]
                                                                
--16----16----14---14----14-|--14---14----12----12-12--12--14--|
----------------------------|----------------------------------|
----------------------------|----------------------------------|
----------------------------|----------------------------------|
----------------------------|----------------------------------|
----------------------------|----------------------------------|


                                                                
--16----16----14---14----14-|--14---14----13----13-13--13--14--|
----------------------------|----------------------------------|
----------------------------|----------------------------------|
----------------------------|----------------------------------|
----------------------------|----------------------------------|
----------------------------|----------------------------------|


                                                                   
---16----16----14---14----14--|---14---14----12----12-12--12--14--|
------------------------------|-----------------------------------|
------------------------------|-----------------------------------|
------------------------------|-----------------------------------|
------------------------------|-----------------------------------|
------------------------------|-----------------------------------|


                                                                
---16----16----14---14----14--|---14---14----13----13-13--13--||
------------------------------|-------------------------------||
------------------------------|-------------------------------||
------------------------------|-------------------------------||
------------------------------|-------------------------------||
------------------------------|-------------------------------||


Comments