Misc - Mae Hen Wlad Fy Nhadau Chords & Tabs

 

Mae Hen Wlad Fy Nhadau Chords & Tabs

Misc Chords & Tabs

Version: 1 Type: Tab 0 ratings
1 star 2 stars 3 stars 4 stars 5 stars
comments

Mae Hen Wlad Fy Nhadau Tab

Mae hen wlad fy nhadau

E|-------------------------------------------------------------
B|-------------------------------------------------------------
G|-------------------------------------------------------------
D|------------------------10--10----7--9--10--7--5--2----------
A|--3---7--5-3--10--8--7-------------------------------3-3-2-3-
E|-------------------------------------------------------------

E|-------------------------------------------------------------
B|-------------------------------------------------------------
G|-------------------------------------------------------------
D|--2-0-0-0-----2--3-5---5--2-3-5---5--7-9-10---10--7-9-10-----
A|-------------------------------------------------------------
E|-------------------------------------------------------------
[ Tab from: http://www.guitartabs.cc/tabs/m/misc/mae_hen_wlad_fy_nhadau_tab.html ]
E|-------------------------------------------------------------
B|-------------------------------------------------------------
G|-------------------------------------------------------------
D|-3-0-2-0--3-3--------------5-----------10---------5---2------
A|---------------------------------------------------------3-3-
E|-------------------------------------------------------------

E|-------------------------------------------------------------
B|-------------------------------------------------------------
G|-------------------------------------------------------------
D|------0--2-3-5---5-----2-3-5---5-----7--9--10----10-----7--9-
A|-2-3---------------------------------------------------------
E|-------------------------------------------------------------

E|-------------------------------------------------------------
B|-------------------------------------------------------------
G|-------------------------------------------------------------
D|-10------10----7--5--2------0---2----0-----------------------
A|------------------------3------------------3-----3-----------
E|-------------------------------------------------------------

Most likely its a bit wrong.change it as you like but its pretty 
close. Cymru am Byth!!!!!!!!!!!!!!!!!(England's going home!!!!!)

Any comments alit_one21@hotmail.com
Comments