Misc - Love Is Blue Chords & Tabs

 

Love Is Blue Chords & Tabs

Misc Chords & Tabs

Version: 1 Type: Tab 0 ratings
1 star 2 stars 3 stars 4 stars 5 stars
comments

Love Is Blue Tab

#----------------------------------PLEASE NOTE--------------------------------#
#This file is the author's own work and represents their interpretation of the#
#song. You may only use this file for private study, scholarship, or research.#
#-----------------------------------------------------------------------------#
#-- File created with Instab - http://www.pconline.com/~smcarey/instab.html --#
#-----------------------------------------------------------------------------#

Title: Love is blue
Album: misc
Transcribed by: Andres Marcos
Email: amarcosb1@hotmail.com
[ Tab from: http://www.guitartabs.cc/tabs/m/misc/love_is_blue_tab.html ]
-0----------------|----------|--------------------|---------------------------
-----3---1-0------|---1-0-1--|--------------------|---------------------------
---2---2-----2-0--|-2--------|---2---0-2-0--------|---------------------------
-----0------------|----------|-------------2------|---------------------------
-0-------------3--|-0--------|-0-------------3-2--|---------------------------
-----------3------|-------1--|-----3--------------|---------------------------
 Repeat the first two parts and then:                                         

--------------0---------------------------------------------------------------
--------------1---------------------------------------------------------------
---2-1---1-2--2---------------------------------------------------------------
-------4------2---------------------------------------------------------------
-0---------0--0---------------------------------------------------------------
-----0--------0---------------------------------------------------------------
                                                                              

Comments