Misc - Loose Ends Chords & Tabs

 

Loose Ends Chords & Tabs

Misc Chords & Tabs

Version: 1 Type: Tab 0 ratings
1 star 2 stars 3 stars 4 stars 5 stars
comments

Loose Ends Tab

E|--------------------------------------------------|--------------------------------------------------|
B|--------------------------------------------------|--------------------------------------------------|
G|--------------------------------------------------|--------------------------------------------------|
D|--------7---------------------------5------------|----------------7-------------------5------------|
A|------------7---------------------------5--------|--------------------7-------------------5--------|
E|--7---7------------------5---5------------------|------7-----7----------------5--5---------------|

E|--------------------------------------|--------------------------------------------------|
B|--------------------------------------|--------------------------------------------------|
G|--------------------------------------|--------------------------------------------------|
D|--------------------------------------|--------------------------------------------------|
A|--------------------------------------|--------------------------------------------------|
E|--77---77---77---77---5/7--------|--77--77--77--77—10/7----------------------|
[ Tab from: http://www.guitartabs.cc/tabs/m/misc/loose_ends_tab.html ]
E|--------------------------------------------------|--------------------------------------------------|
B|--------------------------------------------------|--------------------------------------------------|
G|--------------------------------------------------|--------------------------------------------------|
D|--------------------------------------------------|--------------------------------------------------|
A|--------------------------------------------------|--------------------------------------------------|
E|--2-2----9-9----5-5----3-3---5-5--0---------|---2-2---9-9---5-5---5-5--3-3-0--------------|

E|--------------------------------------------------|
B|--------------------------------------------------|
G|--------------------------------------------------|
D|--------------------------------------------------|
A|--------------------------------------------------|
E|--BASS- SOLO- (HOLD)-------------------|

E|--------------------------------------|--------------------------------------------------|
B|--------------------------------------|--------------------------------------------------|
G|--------------------------------------|--------------------------------------------------|
D|--------------------------------------|--------------------------------------------------|
A|--------------------------------------|--------------------------------------------------|
E|--77---77---77---77---5/7--------|--77--77--77--77—10/7----------------------|

E|--------------------------------------------------|--------------------------------------------------|
B|--------------------------------------------------|--------------------------------------------------|
G|--------------------------------------------------|--------------------------------------------------|
D|--------7---------------------------5------------|----------------7-------------------5------------|
A|------------7---------------------------5--------|--------------------7-------------------5--------|
E|--7---7------------------5---5------------------|------7-----7----------------5--5---------------|



We made this song up, trust me if u add bass it sounds kool!!!

Comments