Misc - Little Blues Bass Thing Chords & Tabs

 

Little Blues Bass Thing Chords & Tabs

Misc Chords & Tabs

Version: 1 Type: Bass Tab 0 ratings
1 star 2 stars 3 stars 4 stars 5 stars
comments

Little Blues Bass Thing Bass Tab

ts pretty kewl but it takes a while to learn, but that might be just me oh well....
here it is:

G|---------------|--------------|------4-7-4---|
A|------4-7-4----|------4-7-4---|---4-7-----7-4|
D|---4-7-----7-4-|---4-7-----7-4|--5-----------|
E|--5------------|--5-----------|--------------|
[ Tab from: http://www.guitartabs.cc/tabs/m/misc/little_blues_bass_thing_btab.html ]
G|--------|--------|--------|--------|---------------|
A|---6-9-6|---4-7-4|--------|---6-9-6|---------------|
D|--7-----|--5-----|---4-7-4|--7-----|---4-5-6-7-----|
E|--------|--------|--5-----|--------|--5-------0-4-5|

If you hav any variations could ya e-mail me in blob_cpk@hotmail.com   thanx!!!
Comments