Misc - King Of The Hill Theme Song Chords & Tabs

 

King Of The Hill Theme Song Chords & Tabs

Misc Chords & Tabs

Version: 1 Type: Tab 7 ratings
1 star 2 stars 3 stars 4 stars 5 stars
comments

King Of The Hill Theme Song Tab

This is a fun, and easy one to play. Listen to the song to get the
rhythm, the extra columns at the end of each rift DOES NOT reflect
the timing of the song.

p = Pull off

e|------------------------------------
B|------------------------------------
G|------------------------------------
D|------------------------------------
A|-------------------0-0-0-4-2--------
E|-0-0-0-0-4-0-0-0--------------------
[ Tab from: http://www.guitartabs.cc/tabs/m/misc/king_of_the_hill_theme_song_tab.html ]
e|------------------------------------
B|------------------------------------
G|------------------------------------
D|------------------------------------
A|-------------------0-0--------------
E|-0-0-0-0-4-0-0-0-------4-4-2---4-2--

e|------------------------------------
B|------------------------------------
G|------------------------------------
D|------------------------------------
A|-------------------0-0-0-4-2--------
E|-0-0-0-0-4-0-0-0--------------------

e|------------------------------------
B|------------------------------------
G|------------------------------------
D|-2-2--------------------------------
A|-----4-4-2-2-0-0-------5------------
E|-----------------4-4----4p2p0---0-0-
Comments