Misc - Jurassic Park Theme Chords & Tabs

 

Jurassic Park Theme Chords & Tabs

Misc Chords & Tabs

Version: 1 Type: Tab

Jurassic Park Theme Tab

This is the slow part from the end of Jurassic Park when they are
flying from the island.  If you have any questions email
son_o_zion04@hotmail.com


[ Tab from: http://www.guitartabs.cc/tabs/m/misc/jurassic_park_theme_tab.html ]
e|-3-2-3---3-2-3---3-2-3---3-2-3-5
b|------3-1-----3-1-----3-1-------
g|--------------------------------
d|--------------------------------
a|--------------------------------
E|--------------------------------

or, +1 octave

e|-15-14-15-----15-14-15-----15-14-15-----15-14-15-17
b|---------15-13--------15-13--------15-13-----------
g|---------------------------------------------------
d|---------------------------------------------------
a|---------------------------------------------------
E|---------------------------------------------------