Misc - Jiffy Jam Chords & Tabs

 

Jiffy Jam Chords & Tabs

Misc Chords & Tabs

Version: 1 Type: Tab 0 ratings
1 star 2 stars 3 stars 4 stars 5 stars
comments

Jiffy Jam Tab

Jiffy Jam  
Tab Staff (Standard Tuning)
This is a very complicated song but work with it and its real cool.
E)-----------------------0-------------0------------0----
B}-----------------0--------0-------------7--8----7---7-8
G)--------------------6--------7--5h6--------------------
D)------2-----5/6----------------------------------------
A)-2h4------------------------------0--------------------
E)---------0-------------4----------------------6--------

E)----7------------------------------------0-------------
B}-9-----7---------0--------0--------0-------------------
G)-------------10-----2--3-----7--4-----6----------------
D)-----------------------------8-------------------------
A)--------------------------------7----------------------
E)-7-----8--9---------1--2-----8--7----------------------
[ Tab from: http://www.guitartabs.cc/tabs/m/misc/jiffy_jam_tab.html ]
E)---------------0--------------0--------------0-----8---
B}---------0--------0--------------7--8-----7-----7------
G)------------6--------7--5--6---------------------------
D)----5/6------------------------------------------------
A)---------------------------0---------------------------
E)-0-------------4-----------------------6---------------
   
E)----9p7-------0-----12--12--12--12---------------------
B}-9-------8h9-----0--9---10--8---9----------------------
G)-------------------------------------------------------
D)--------------------12--11--10--9----------------------
A)-------------------------------------------------------
E)-7-----------------------------------------------------

E)-------------------------------------------------------
B}-------------------------------------------------------
G)-------------------------------------------------------
D)-------------------------------------------------------
A)-------------------------------------------------------
E)-------------------------------------------------------

E)-------------------------------------------------------
B}-------------------------------------------------------
G)-------------------------------------------------------
D)-------------------------------------------------------
A)-------------------------------------------------------
E)-------------------------------------------------------
 
Comments