Misc - Jan Gan Man Indian Anthem Chords & Tabs

 

Jan Gan Man Indian Anthem Chords & Tabs

Misc Chords & Tabs

Version: 1 Type: Tab 0 ratings
1 star 2 stars 3 stars 4 stars 5 stars
comments

Jan Gan Man Indian Anthem Tab

Jan Gan Man... the national anthem of india can be played in lower scales too but sounds best in this one. 100 % correct.


email at ambidash@hotmail.com


E----0--2--4-4-4-4-4--4-4-4--4-4--2--4--5----4--4-4--2--2-2---2-0-
B-----------------------------------------------------------4-----
G-----------------------------------------------------------------
D-----------------------------------------------------------------
A-----------------------------------------------------------------
E-----------------------------------------------------------------


E----0--7--7-7-7--7-7-7-7-7--7-6-7----5--5-5----4--4-4----2-5-4----4--4-4--2--2-2--7--7-7--5-5-
B----------------------------------------------------------------------------------------------
G----------------------------------------------------------------------------------------------
D----------------------------------------------------------------------------------------------
A----------------------------------------------------------------------------------------------
E----------------------------------------------------------------------------------------------

[ Tab from: http://www.guitartabs.cc/tabs/m/misc/jan_gan_man_indian_anthem_tab.html ]
E----4--4-4--2--2-2---2-0-
B-------------------4-----
G-------------------------
D-------------------------
A-------------------------
E-------------------------


E----0--2--4-4-4--4-4-4--4-4-4--2-4-5--4--4-4--2--2-2---2-0-
B-----------------------------------------------------2-----
G-----------------------------------------------------------
D-----------------------------------------------------------
A-----------------------------------------------------------
E-----------------------------------------------------------


E----7-7-7-7-7-7-7--7-7-7--7-6-7--5--5-5--5--5-5--2-5-4----12-11-12----11-9-11----9-7-9-
B---------------------------------------------------------------------------------------
G---------------------------------------------------------------------------------------
D---------------------------------------------------------------------------------------
A---------------------------------------------------------------------------------------
E---------------------------------------------------------------------------------------

E----0---2---4----2-h-4-/-5------------------------------------------------------------
Comments