Misc - James Bond Melody Chords & Tabs

 

James Bond Melody Chords & Tabs

Misc Chords & Tabs

Version: 1 Type: Tab 2 ratings
1 star 2 stars 3 stars 4 stars 5 stars
comments

James Bond Melody Tab

Artist: Me I guess
Song: James Bond melody
By: Josh Yaksich (yakwoofoo@hotmail.com)


e------------------------------------------------------------------------------------|
B--------------0-1-2-1---------------------------------------------------------------|
G--------------0-0-0-0---------------------------------------------------------------|
D--2-3-4-3-2---2-2-2-2---------------------------------------------------------------|
A--2-3-4-3-2---2-3-0-3---------------------------------------------------------------|
E--0-0-0-0-0---0-0-0-0---------------------------------------------------------------|
     (2x)        (2x)                
  |Each chord is strumed 4x above here|
  |___________________________________|

[ Tab from: http://www.guitartabs.cc/tabs/m/misc/james_bond_melody_tab.html ]
e------------------------------------------------------------------------------------|
B---------------------------------------------------------------3-2------------------|
G--------------------------------------------------------------0---3-3-4-0-2-0-------|
D-----------------------------------------1-0-----------------2---------------4-1-1-2|
A--------------------------------------------1-1-2---0-------4-----------------------|
E--0-2-2-2-2-0-0-0-0-3-3-3-3-2-2-2---0-3------------3-3-2-0-0------------------------|
                  (2x)

Here's something to mess around with. 
Try sliding up and down in whatever places it sounds good in. 
The pull offs and all that jazz are kinda obvious. If you've ever watched a Bond movie,
you should know where they are.
Comments