Misc - Incomparable Chords & Tabs

 

Incomparable Chords & Tabs

Misc Chords & Tabs

Version: 1 Type: Tab 0 ratings
1 star 2 stars 3 stars 4 stars 5 stars
comments

Incomparable Tab

   
Incomparable (anonymous)

Hai Friends, here is my favorite basic music piece for guitar.
It is very basic in motion having chords and some arpeggios.

Thankyou, I hope you will enjoy this Music.

With Warm Regards,
Rajmahendra R. Hegde

Contact me at rajmahendrahegde@hotmail.com

+------------------------------------------------------------------------+
|  Top      -  Note Type, LHF and RHF                                    |
|  1,2,3,4  - Right Hand Fingers                                         |
|  (1. Index Finger,2. Middle Finger so on)                              |
|  ima      - Right Hand Finger                                          |
|  (i- Index Finger, m - Middle Finger, a - Ring Finger)                 |
|                                                                        |
|  w  - Whole Note                                                       |
|  h  - Half Note                                                        |
|  q  - Quarter Note                                                     |
|  e  - Eighth Note                                                      |
|  h. - Dotted Half Note                                                 |
|                                                                        |
| Note:                                                                  |
| *) Notes Not having above letters are q (Quarter Notes)                |
| *) q(a) or h(3) used to differenciate Note type and LHF or RHF         |
| *) Follow the same LHF and RHF in 1-6 Bars Through out the TAB         |
+------------------------------------------------------------------------+

                                 Incomparable
                                 ============
                                                                       
Anonymous
Time Signature : 4/4
Key Signature : A minor
Transcribed by Rajmahendra R. Hegde (rajmahendrahegde@hotmail.com)


                                                q(m)
                         q(a)                   w    i  m  i    m
                 m       h(3) i    4m   0a      w    e  e
E||--------------0----|--0--------------0----|------------------0----|
B||-------------------|-------1----3---------|--1----0--1------------|
G||-------------------|--2-------------------|-------------2---------|
D||-------------------|----------------------|--2--------------------|
A||-------------------|----------------------|--0--------------------|
E||-------------------|----------------------|-----------------------|

                         h(m)
  q(a) i    m    a       w                     q
  w                      w        i    m       w
--0--------------0----|----------------0----|--0--------------0----|
-------1----3---------|--1------------------|-------1----3---------|
--2-------------------|-----------2---------|--2-------------------|
----------------------|--2------------------|----------------------|
----------------------|--0------------------|----------------------|
----------------------|---------------------|----------------------|
[ Tab from: http://www.guitartabs.cc/tabs/m/misc/incomparable_tab.html ]
  q                                              h
  w			  q                      h.
  w    e  e               w                      h.
------------------0----|--0--------------0----|---------------------|
--1----0--1------------|-------1----3---------|--1-------------0----|
-------------2---------|--2-------------------|-----------2---------|
--2--------------------|----------------------|--2------------------|
--0--------------------|----------------------|--0------------------|
-----------------------|----------------------|---------------------|

  q                      q                       q
  w                      h                       w
  w                      h    e  e               w
----------------------|-----------------------|----------------------|
--0--------------0----|--1----0--1-------0----|--0--------------0----|
-------0----2---------|-------------2---------|-------0----2---------|
--2-------------------|--2--------------------|--2-------------------|
----------------------|--0--------------------|----------------------|
--0-------------------|-----------------------|--0-------------------|

  h                     q                      q
  w                     w                      w
  w                     w                      w    e  e
---------------------|----------------------|-----------------------|
--1-------------0----|--0--------------0----|--1----0--1-------0----|
-----------2---------|-------0----2---------|-------------2---------|
--2------------------|--2-------------------|--2--------------------|
--0------------------|----------------------|--0--------------------|
---------------------|--0-------------------|-----------------------|

  q                      h
  w                      h                     q
  w                      h                     w
----------------------|----------------0----|--0--------------0----|
--0--------------0----|--1------------------|-------1----3---------|
-------0----2---------|-----------2---------|--2-------------------|
--2-------------------|--2------------------|----------------------|
----------------------|--0------------------|----------------------|
--0-------------------|---------------------|----------------------|

  q                                              h
  w                       q                      w
  w    e  e               w                      w
------------------0----|--0--------------0----|----------------0----|
--1----0--1------------|-------1----3---------|--1------------------|
-------------2---------|--2-------------------|-----------2---------|
--2--------------------|----------------------|--2------------------|
--0--------------------|----------------------|--0------------------|
-----------------------|----------------------|---------------------|

                         q
  q                      w                       q
  w                      w    e  e               w
--0--------------0----|------------------0----|--0--------------0----|
-------1----3---------|--1----0--1------------|-------1----3---------|
--2-------------------|-------------2---------|--2-------------------|
----------------------|--2--------------------|----------------------|
----------------------|--0--------------------|----------------------|
----------------------|-----------------------|----------------------|

  h
  h.
  h.
--------------------||
--1-----------------||
---------------2----||
--2-----------------||
--0-----------------||
--------------------||
Comments