Misc - I Surrender All Chords & Tabs

 

I Surrender All Chords & Tabs

Misc Chords & Tabs

Version: 1 Type: Tab 1 rating
1 star 2 stars 3 stars 4 stars 5 stars
comments

I Surrender All Tab

e---1--1--3--1--0--0-1-0-------3--1--0-1-----------------------------------------------------------
b-------------------------3--3-----------3---------------------------------------------------------
g--------------------------------------------------------------------------------------------------
d--------------------------------------------------------------------------------------------------
a--------------------------------------------------------------------------------------------------
E--------------------------------------------------------------------------------------------------
[ Tab from: http://www.guitartabs.cc/tabs/m/misc/i_surrender_all_tab.html ]
e---1--1--3--1--0--0-1-0-------3--1--0-1-----------------------------------------------------------
b-------------------------3--3-----------3---------------------------------------------------------
g--------------------------------------------------------------------------------------------------
d--------------------------------------------------------------------------------------------------
a--------------------------------------------------------------------------------------------------
E--------------------------------------------------------------------------------------------------
[ Tab from: http://www.guitartabs.cc/tabs/m/misc/i_surrender_all_tab.html ]
e--------------------------------------------------------------------------------------------------
b---3-2--0----------2-0----------------------------------------------------------------------------
g----------2-0----------2-0------------------------------------------------------------------------
d---------------------------3---------------0---------------0xxxxxxxxxxx---------------------------
a---------------------------------------2-0---3-3-2-0----------------------------------------------
E-----------------------------------1-3---------------3-1-0----------------------------------------

x= whammy bar
On acoustic substitute last 0 on D for 5 on A then whammy bar is vibrato ~~~~~~~~~~~~

Lyrics:
All to Jesus  I surrender   All to Him I freely give
I will ever love and trust Him  In His presence daily live
I surrender all    I surrender all
All to Thee my blessed Savior,  I surrender all
Comments