Misc - Hold My Heart Chords & Tabs

 

Hold My Heart Chords & Tabs

Misc Chords & Tabs

Version: 1 Type: Tab 0 ratings
1 star 2 stars 3 stars 4 stars 5 stars
comments

Hold My Heart Tab

I was fiddling around a bit one day HSB from Nirvana and Hold On from 
Limp Bizkit and I made a variation of the two put together. I've never 
tabbed before but here goes:

^=hammer on
/=slide
\=slide

[ Tab from: http://www.guitartabs.cc/tabs/m/misc/hold_my_heart_tab.html ]
e--------------------------------------------------------------------------------------------
B-------------1------------------------------------------------------------------------------
G-------2----------0---------------2-------------------------------------------0--------0^2--
D-0---------------------------2----------0-------------------4-------------------------------
A------------------------0-----------------------------2-------------0-----------------------
E-------------------------------------------------0------------------------------------------

e--------------------------------------------------------------------------------------------
B-------------1------------------------------------------------------------------------------
G-------2----------0---------------2---------------------------------------------------------
D-0---------------------------2----------0-------------------4--------------4 --------4/5\4--
A------------------------0-----------------------------2-------------0-----------------------
E-------------------------------------------------0------------------------------------------

I call this little riff "Hold my Heart"...hehehe. You can e-mail me 
with feedback at durst_dude@hotmail.com

Comments