Misc - Happy Birthday Chords & Tabs

 

Happy Birthday Chords & Tabs

Misc Chords & Tabs

Version: 10 Type: Tab 0 ratings
1 star 2 stars 3 stars 4 stars 5 stars
comments

Happy Birthday Tab

------------------
------------------
0--0--2--0--5--4--
------------------
------------------
------------------

------------------
------------------
0--0--2--0--7--5--
------------------
------------------
------------------
[ Tab from: http://www.guitartabs.cc/tabs/m/misc/happy_birthday_tab_ver_10.html ]
-------------------------
-------------------------
0--0--12--9--5--5--4--2--
-------------------------
-------------------------
-------------------------

--------------------
--------------------
10--10--9--5--7--5--
--------------------
--------------------
--------------------
Comments