Misc - Green Sleves Chords & Tabs

 

Green Sleves Chords & Tabs

Misc Chords & Tabs

Version: 1 Type: Tab 0 ratings
1 star 2 stars 3 stars 4 stars 5 stars
comments

Green Sleves Tab

-----------0--1-0----------------------
-----1---3--------3-0--------0--1------
--2--------------------0---2-------2-2-
---------------------------------------
---------------------------------------

--------------------------0--1-0-------
------0------------1---3----------3-0--
-1-2-----1------2----------------------
-------------2-------------------------
---------------------------------------

---------------------------------------
-------0--1--0-------------------------
-0--2-----------2--1-----1--2-----2----
----------------------2----------------
---------------------------------------
[ Tab from: http://www.guitartabs.cc/tabs/m/misc/green_sleves_tab.html ]
-3--3---2-0----------------------------
-------------3--0---------0---1--------
-------------------0---2---------2--2--
---------------------------------------
---------------------------------------

-----------------3----3--2-0-----------
------0-----------------------3--0-----
-1-2----1--------------------------0--2
-----------2---------------------------
---------------------------------------
                      1st ending(repeat to top)    2nd ending
----------------------|----------------:--------------0--4--5---
-0--1--0--------------|----------------:-----0--1--3------------
----------2--1-----1--|----2.----2.----:--2---------------------
----------------2-----|----------------:------------------------
----------------------|----------------:------------------------


This is exact but if you have any questions or comments 
e -maill is Doiboy90@hotmail.com
Comments