Misc - Graduation Song Chords & Tabs

 

Graduation Song Chords & Tabs

Misc Chords & Tabs

Version: 1 Type: Tab 1 rating
1 star 2 stars 3 stars 4 stars 5 stars
comments

Graduation Song Tab

Track 1
                                                                      
E||----------------------|--------------------|----------------------|
B||----------------------|--------------------|----------------------|
G||----------------------|--------------------|----------------------|
D||--7--------6--7--9----|--------------------|----------------------|
A||----------------------|--9--------7--------|--5--------4--5--7----|
E||----------------------|--------------------|----------------------|

[ Tab from: http://www.guitartabs.cc/tabs/m/misc/graduation_song_tab.html ]
                                                                
-------------------|---------------------|---------------------|
-------------------|---------------------|---------------------|
-------------------|---------------------|---------------------|
-------------------|---------------------|-----7---------------|
--2----------------|--2--------4----5----|--7---------5--------|
-------------------|---------------------|---------------------|


                                            
----------------------|-------------------||
----------------------|-------------------||
----------------------|-------------------||
--5--------4----------|-------------------||
--------------7----5--|--7----------------||
----------------------|-------------------||


Comments