Misc - Going Up The Stairs Chords & Tabs

 

Going Up The Stairs Chords & Tabs

Misc Chords & Tabs

Version: 1 Type: Bass Tab 0 ratings
1 star 2 stars 3 stars 4 stars 5 stars
comments

Going Up The Stairs Bass Tab

blues riff i made up u can play it backwards but u will have to go down the stairs AHHAAAHAHA

G|--------------3-5---
D|---------3-5--------
A|-----3-5------------
E|3-6-----------------

G|------------5-7----
D|--------5-8--------
A|----5-8------------
E|6-8----------------
[ Tab from: http://www.guitartabs.cc/tabs/m/misc/going_up_the_stairs_btab.html ]
G|---------------7-10--
D|-----------8-10------
A|-----8-10------------
E|8-10-----------------

G|---------------10-12-
D|-----------10-12-----
A|------10-13----------
E|10-13----------------

G|------------------12-15
D|-----------12-15-------
A|-----13-15-------------
E|13-15------------------
Comments