Misc - Godfather Theme Chords & Tabs

 

Godfather Theme Chords & Tabs

Misc Chords & Tabs

Version: 1 Type: Tab 2 ratings
1 star 2 stars 3 stars 4 stars 5 stars
comments

Godfather Theme Tab

hi! personally i think this is right!so have fun

e--------------------------------------------------------------
b-2-1-2-3-2-2---------------2-1-2-3-2-2------------------------
g-------------2~~~~~~~~~-----------------1~~~~~~~~~------------
d--------------------------------------------------------------
a--------------------------------------------------------------
e--------------------------------------------------------------

this is the love theme and if you put them together it sounds real
cool.
[ Tab from: http://www.guitartabs.cc/tabs/m/misc/godfather_theme_tab.html ]
e---7-10-9-7-10-7-9-7---------------7-10-9-7-10-7-9-7----------
b--7------------------8-10-7~~~~~--7------------------5-7-6-5--
g--------------------------------------------------------------
d--------------------------------------------------------------
a--------------------------------------------------------------
e--------------------------------------------------------------

e-----6-9---6-7-------10-8-7-10-8-8-7-7---7-7-6-5-9-7-------------
b-5-8----5-8--------7---------------------------------8-7-7-10-7-5
g------------------9----------------------------------------------
d-----------------------------------------------------------------
a-----------------------------------------------------------------
e-----------------------------------------------------------------

e-----------------------------------------------------------------
b---5-8-6-7~~~~~~~~~~---------------------------------------------
g-----------------------------------------------------------------
d-----------------------------------------------------------------
a-----------------------------------------------------------------
e-----------------------------------------------------------------
Comments