Misc - Geico Dogs Commercial Chords & Tabs

 

Geico Dogs Commercial Chords & Tabs

Misc Chords & Tabs

Version: 1 Type: Tab 0 ratings
1 star 2 stars 3 stars 4 stars 5 stars
comments

Geico Dogs Commercial Tab

   
Transcription of "GEICO Dogs Commercial" by hammeron.

The song used in the ad is an excerpt from "Lonesome Magic Vice Harvest" by Alexandre Geindre.

Commercial plays in F#m, use capo on 2nd fret to be in tune.
-----------
Chords:
Em...022000
C....x32010
A....x02220
-----------

Guitar 1 (Whistler):
[ Tab from: http://www.guitartabs.cc/tabs/m/misc/geico_dogs_commercial_tab.html ]
...Em......C.........A.......C.........Em......C.........A.......C.......
e|-----7---8-------|-----9---8-------|-----7---8-------|-----7-----------|
B|-----------------|-----------------|-------------8---|-10------8-------|
G|-----------------|-----------------|-----------------|-----------------| Repeat...
D|-----------------|-----------------|-----------------|-----------------|
A|-----------------|-----------------|-----------------|-----------------|
E|-----------------|-----------------|-----------------|-----------------|

Guitar 2:

...Em......C.........A.......C.........Em......C.........A.......C.......
e|-----------------|-----------------|-----------------|-----------------|
B|-----0-------1---|-----2-------1---|-----0-------1---|-----2-------1---|
G|-----------------|-----------------|-----------------|-----------------| Repeat...
D|---2---2---2---2-|---2---2---2---2-|---2---2---2---2-|---2---2---2---2-|
A|---------3-------|-0-------3-------|---------3-------|-0-------3-------|
E|-0---------------|-----------------|-0---------------|-----------------|
Comments