Misc - Geico Asleep Comercial Chords & Tabs

 

Geico Asleep Comercial Chords & Tabs

Misc Chords & Tabs

Version: 1 Type: Tab 1 rating
1 star 2 stars 3 stars 4 stars 5 stars
comments

Geico Asleep Comercial Tab

   
Transcription of "GEICO Asleep Commercial" by hammeron.
Credits go to Volitan for proofreading and corrections,
and eetdrinkanbmerry for suggesting this key of C fingering.

The song used for the ad is an original recording prepared for GEICO, it's not available.

The commercial plays in E flat, to play along use a capo at the third fret.

-----------
Chords:
C....332010
F/A..x0321x
F....x3321x
F9...x33213
G....32000X
-----------

4/4 time
...C.................F/A.....G.........C.................F/A....G........
e|-----------------|-----------------|-----------------|-----------------|
B|-1---1-------1---|---0-1---0-------|-1---1-------1---|---0-1---0-------|
G|---0-------0-----|-2-----------0---|---0-------0-----|-2-----------0---|
D|-----------------|-----------------|-----------------|-----------------|
A|-3---------------|-0---------------|-3---------------|-0---------------|
E|---------3-------|---------3-------|---------3-------|---------3-------|


...C.................F/A.....G.........C.................F/A....G........
e|-----------------|-----------------|-----------------|-----------------|
B|-1---1-------1---|---0-1---0-------|-1---1-------1---|---0-1---0-------|
G|---0-------0-----|-2-----------0---|---0-------0-----|-2-----------0---|
D|-----------------|-----------------|-----------------|-----------------|
A|-3---------------|-0---------------|-3---------------|-0---------------|
E|---------3-------|---------3-------|---------3-------|---------3-------|

[ Tab from: http://www.guitartabs.cc/tabs/m/misc/geico_asleep_comercial_tab.html ]
...F.........................F9..................................F.......
e|-----------------|---------3-------|-----------------|---------1---0---|
B|-1---1-------1---|-----1-------1---|-1---1-------1---|-----1-----------|
G|---2-------2-----|---2-------2-----|---2-------2-----|---2---2---------|
D|-3---------------|-3---------------|-3---------------|-3---------------|
A|---------3-------|---------3-------|---------3-------|-----------------|
E|-----------------|-----------------|-----------------|-----------------|


...C.................F/A.....G.........C.................F/A....G........
e|-----------------|-----------------|-----------------|-----------------|
B|-1---1-------1---|---0-1---0-------|-1---1-------1---|---0-1---0-------|
G|---0-------0-----|-2-----------0---|---0-------0-----|-2-----------0---|
D|-----------------|-----------------|-----------------|-----------------|
A|-3---------------|-0---------------|-3---------------|-0---------------|
E|---------3-------|---------3-------|---------3-------|---------3-------|


...C.................F/A.....G.........C.................F/A....G........
e|-----------------|-----------------|-----------------|-----------------|
B|-1---1-------1---|---0-1---0-------|-1---1-------1---|---0-1---0-------|
G|---0-------0-----|-2-----------0---|---0-------0-----|-2-----------0---|
D|-----------------|-----------------|-----------------|-----------------|
A|-3---------------|-0---------------|-3---------------|-0---------------|
E|---------3-------|---------3-------|---------3-------|---------3-------|
Comments