Misc - Fun Lil Blues Riff Chords & Tabs

 

Fun Lil Blues Riff Chords & Tabs

Misc Chords & Tabs

Version: 1 Type: Tab 0 ratings
1 star 2 stars 3 stars 4 stars 5 stars
comments

Fun Lil Blues Riff Tab

Tabbed by: Me
Email: zerokid182@yahoo.com

Tuning: Standard
[ Tab from: http://www.guitartabs.cc/tabs/m/misc/fun_lil_blues_riff_tab.html ]
ok im not sure if i came up wit this 1 or not but i think i did so here it goes.
e|-----------------------------|-----------------------|----------------------|
B|-----------------------------|-----------------------|----------------------|
G|-----------------------------|--------5-5--3-3-------|----------------------|
D|-------5-5--3-3-----------X4-|-----------------345-X2|------5-5--3-3------X2|
A|----------------345----------|--3-3------------------|---------------345----|
E|--3-3------------------------|-----------------------|--3-3-----------------|

e|--------------------------3^-------------------------------------|
B|-----------------------------6-3---------------------------------|
G|-----5-5--3-3--------------------5-3*----------------------------|
D|---------------3-3--5-5------------------------------------------|
A|-3-3-------------------------------------------------------------|
E|-----------------------------------------------------------------|



and thats it...simple enough...
Comments